Nirvana - Beeswax Chords & Tabs

 

Beeswax Chords & Tabs

Nirvana Chords & Tabs

Version: 3 Type: Tab 0 ratings
1 star 2 stars 3 stars 4 stars 5 stars
comments

Beeswax Tab

this is a weird song but sounds awesome. Makes you wonder how kurt came up with the 

lyrics.

Intro & Verses

e|------------------|
b|------------------|
g|------------------|
d|------------------|i cant figure out how kurt gets 
a|-9/8-8/7-7/6/4-0--|the akward sounding feedback :(
E|-7/6-6/5-5/4/2-0--|

Chorus
[ Tab from: http://www.guitartabs.cc/tabs/n/nirvana/beeswax_tab_ver_3.html ]
e|------------------|
b|------------------|
g|------------------|
d|-2--5-5-2--7-7-6--|
a|-2--5-5-2--7-7-6--|
E|-0--3-3-0--5-5-4--|

Bridge

e|------------------------------------|
b|------------------------------------|
g|-----------1-1-1-1-1-1-1-1-1bend----|play something like this a few times
d|-3-3-3-3-3--------------------------|
a|-3-3-3-3-3--------------------------|
E|-1-1-1-1-1--------------------------|

by Alex Dewar
Comments