Nirvana - Been A Son Chords & Tabs

 

Been A Son Chords & Tabs

Nirvana Chords & Tabs

Version: 4 Type: Bass Tab 0 ratings
1 star 2 stars 3 stars 4 stars 5 stars
comments

Been A Son Bass Tab

This song has been tabbed in many different ways. The way I am going to tab
it here is the version from the greatest hits album.

Verse Riff

Sometimes Krist plays a few variations, so spice it up a bit if you want

G-----------------------------------------------
D-----------------------------------------------
A-5-5-3-2-0--5-5-3-2-0--------------------------
E-----------------------------------------------

Chorus

If you listen closely you can hear him switch between octaves

G-----------------------------------------------
D--------333------------------------------------
A-------------------3-20------------------------
E--3-33------0-000------------------------------

and for the final bar of the chorus play
[ Tab from: http://www.guitartabs.cc/tabs/n/nirvana/been_a_son_btab_ver_4.html ]
G-----------------------------------------------
D--------333-2222222----------------------------
A-----------------------------------------------
E--3-33-----------------------------------------

The Solo!!

G-----------------77-5-4-2--5554542-7-7-7-7-5-4-2--------------
D--------------------------------------------------------------
A---5-5-320--5-5------------------------------------5-5-3-2-0--
E--------------------------------------------------------------

G--5554542-7-7-7-7-5-4-2--
D-------------------------
A-------------------------
E-------------------------

Go back into chorus and finish it off

If you think this is wrong then CORRECT IT!!! I cannot stand incorrect tabs
and putting an incorrect one into the world seems heinous.

email me at maxmanpp@yahoo.com with the subject 'Been A son' tab with questions or comments
Comments