Nirvana - Aneurysm Chords & Tabs

 

Aneurysm Chords & Tabs

Nirvana Chords & Tabs

Version: 3 Type: Tab 7 ratings
1 star 2 stars 3 stars 4 stars 5 stars
comments

Aneurysm Tab

N I R V A N A

A N E U R Y S M

tabbed by Danny



intro
------------------------------------------
------------------------------------------
-----------5-5-5--4-4-4--2-2-2------------
---4-4-4---5-5-5--4-4-4--2-2-2------------
---4-4-4---3-3-3--2-2-2--0-0-0------------
---2-2-2----------------------------------

that weird part
----------------------------------------------
----------------------------------------------
--3b-4b-5b-6b-7b-8b-9b------------------------
----------------------------------------------
----------------------------------------------
----------------------------------------------
[ Tab from: http://www.guitartabs.cc/tabs/n/nirvana/aneurysm_tab_ver_3.html ]
----------------------------------------------------
----------------------------------------------------
---4----------------7-------------------------------
---4----------------7-------------------------------
---2----------------5-------------------------------
----------------------------------------------------
come on over and do the twist...

----------------------------------------------------
----------------------------------------------------
------------2--2--2---4-4-4---2--2--2---------------
---4--4-4---2--2--2---4-4-4---2--2--2---------------
---4--4-4---0--0--0---2-2-2---0--0--0---------------
---2--2-2-------------------------------------------
beat me out of me....
Comments