Nirvana - Aneurysm Chords & Tabs

 

Aneurysm Chords & Tabs

Nirvana Chords & Tabs

Version: 2 Type: Tab 1 rating
1 star 2 stars 3 stars 4 stars 5 stars
comments

Aneurysm Tab

Anuerysm - Nirvana
From The Incesticide Album

Kurt Cobain- Guitar, Vocals
Krist Novoselic- Bass
Dave Grohl- Drums

This is the complete song and I'm 100% sure it's correct.

Tuning: Standard EADGBe
  This is just the chords. Listen to the song to get the timing.


         Intro
E----------------------------------------------------------------------------------------------
B----------------------------------------------------------------------------------------------
G-------------5-----4-----2---------3/-4/-5/-6/-7/-8/-9/-10^---------------------------------
D--- -4-------5-----4-----2------------------------------------------------------------------
A---- 4-------3-----2-----------------------------------------------------------------------
E-----2---------------------------------------------------------------------------------------
          Clean Guitar                              Distorted
[ Tab from: http://www.guitartabs.cc/tabs/n/nirvana/aneurysm_tab_ver_2.html ]
E----------------------------------------------------------------------------------------------
B----------------------------------------------------------------------------------------------
G------------5-----4-----2---------3/-4/-5/-6/-7/-8/-9/-10^----------------------------------
D----- 4-----5-----4-----2------------------------------------------------------------------
A----- 4-----3-----2-------------------------------------------------------------------------
E------2---------------------------------------------------------------------------------------
          Distorted
E----------------------------------------------------------------------------------------------
B----------------------------------------------------------------------------------------------
G--------------------------7----------------------------------6------4------------------------
D------- 9---9----9-------7----------------- 4-----6/--7-----6------4------------------------
A------- 9---9----9-------5----------------- 4-----6/--7-----4------2------------------------
E--------7---7----7--------------------------2-----4/--5-------------------------------------
  P.M._______
             Clean                   Distorted

Listen to the song to get it right.
Comments