Nirvana - Aneurysm Chords & Tabs

 

Aneurysm Chords & Tabs

Nirvana Chords & Tabs

Version: 10 Type: Tab 0 ratings
1 star 2 stars 3 stars 4 stars 5 stars
comments

Aneurysm Tab

Aneurysm

Intro/ Chorus

E--2-2-2-2------------------------
5--4-4-4-4-3-3-3-3-2-2-2-2-0-0-0-0
4--4-4-4-4-5-5-5-5-4-4-4-4-2-2-2-2
3----------5-5-5-5-4-4-4-4-2-2-2-2	X=2
2---------------------------------
e---------------------------------
then
E-------------------------------------------------------
5-------------------------------------------------------
4-------------------------------------------------------
3--4-4-4-4-5-5-5-5-6-6-6-6-7-7-7-7-8-8-8-8-9-9-9-9-10b--
2---0-0-0-0-0-0-0-0-0-0-0-0-0-0-0-0-0-0-0-0-0-0-0-0-----
e-------------------------------------------------------

E--2-2-2-2------------------------
5--4-4-4-4-3-3-3-3-2-2-2-2-0-0-0-0
4--4-4-4-4-5-5-5-5-4-4-4-4-2-2-2-2
3----------5-5-5-5-4-4-4-4-2-2-2-2	X=8
2---------------------------------
e---------------------------------

E-------------------------------------------------------
5-------------------------------------------------------
4-------------------------------------------------------
3--4-4-4-4-5-5-5-5-6-6-6-6-7-7-7-7-8-8-8-8-9-9-9-9-10b--
2---0-0-0-0-0-0-0-0-0-0-0-0-0-0-0-0-0-0-0-0-0-0-0-0-----
e-------------------------------------------------------

E----------------------------
5--5---5-5-5-5-5-5-5-5-5-5-5-
4--7---7-7-7-7-7-7-7-7-7-7-7-
3----------------------------	X=2
2----------------------------
e----------------------------

"come on over and do the twist!"

E----------------------------
5--5---5-5-5-5-5-5-5-5-5-5-5-
4--7---7-7-7-7-7-7-7-7-7-7-7-
3----------------------------
2----------------------------
e----------------------------

"i wanna do it and have fit!"

E----------------------------
5--5---5-5-5-5-5-5-5-5-5-5-5-
4--7---7-7-7-7-7-7-7-7-7-7-7-
3----------------------------	
2----------------------------
e----------------------------

"love you so much it makes me sick!"

E----------------------------
5--5---5-5-5-5-5-5-5-5-5-5-5-
4--7---7-7-7-7-7-7-7-7-7-7-7-
3----------------------------	
2----------------------------
e----------------------------

"come on over and do the twist!"

E----------------------------
5--5---5-5-5-5-5-5-5-5-5-5-5-
4--7---7-7-7-7-7-7-7-7-7-7-7-
3----------------------------	
2----------------------------
e----------------------------

"beat meat outa me!'

E--2-2-2-4-5-5-5-6-7-7-7-7-6-5-5-5-0
5--4-4-4-6-7-7-7-8-9-9-9-9-8-7-7-7-0
4--4-4-4-6-7-7-7-8-9-9-9-9-8-7-7-7-0
3-----------------------------------	X=8
2-----------------------------------
e-----------------------------------

"come on over and do the twist!"

E----------------------------
5--5---5-5-5-5-5-5-5-5-5-5-5-
4--7---7-7-7-7-7-7-7-7-7-7-7-
3----------------------------	
2----------------------------
e----------------------------
[ Tab from: http://www.guitartabs.cc/tabs/n/nirvana/aneurysm_tab_ver_10.html ]
"i wanna do it and have a fit!"

E----------------------------
5--5---5-5-5-5-5-5-5-5-5-5-5-
4--7---7-7-7-7-7-7-7-7-7-7-7-
3----------------------------	
2----------------------------
e----------------------------

"love you so much it makes me sick!"

E----------------------------
5--5---5-5-5-5-5-5-5-5-5-5-5-
4--7---7-7-7-7-7-7-7-7-7-7-7-
3----------------------------	
2----------------------------
e----------------------------

"come on over and shoot the sh**!"

E----------------------------
5--5---5-5-5-5-5-5-5-5-5-5-5-
4--7---7-7-7-7-7-7-7-7-7-7-7-
3----------------------------	
2----------------------------
e----------------------------

"beat meat outa me!'

E--2-2-2-4-5-5-5-6-7-7-7-7-6-5-5-5-0
5--4-4-4-6-7-7-7-8-9-9-9-9-8-7-7-7-0
4--4-4-4-6-7-7-7-8-9-9-9-9-8-7-7-7-0
3-----------------------------------	X=8
2-----------------------------------
e-----------------------------------

then

E-------------------------------------------------------------------------------
5-------------------------------------------------------------------------------
4-------------------------------------------------------------------------------
3--4-4-4-4-5-5-5-5-6-6-6-6-7-7-7-7-8-8-8-8-9-9-9-9-10-10-10-10-11-11-11-11-12-12
2---0-0-0-0-0-0-0-0-0-0-0-0-0-0-0-0-0-0-0-0-0-0-0-0-----------------------------
e-------------------------------------------------------------------------------

E----------------------------------------------
5----------------------------------------------
4-13-13-13-13-14-14-14-14-15-15-15-16-16-16-16b
3----------------------------------------------
2----------------------------------------------
e----------------------------------------------

E--2-2-2-2------------------------
5--4-4-4-4-3-3-3-3-2-2-2-2-0-0-0-0
4--4-4-4-4-5-5-5-5-4-4-4-4-2-2-2-2
3----------5-5-5-5-4-4-4-4-2-2-2-2	X=2
2---------------------------------
e---------------------------------

"she keeps a pumpin' straight to my heart"

E--2-2-2-2------------------------
5--4-4-4-4-3-3-3-3-2-2-2-2-0-0-0-0
4--4-4-4-4-5-5-5-5-4-4-4-4-2-2-2-2
3----------5-5-5-5-4-4-4-4-2-2-2-2	X=6
2---------------------------------
e---------------------------------

"she keeps a pumpin' straight to my heart"

3=--4-4-4-4-5-5-5-5-6-6-6-6-7-7-7-7

"she keeps a pumpin' straight to my..."

3=--4-4-4-4-5-5-5-5-6-6-6-6-7-7-7-7

E-------------------------------------------------------
5-------------------------------------------------------
4-------------------------------------------------------
3--4-4-4-4-5-5-5-5-6-6-6-6-7-7-7-7-8-8-8-8-9-9-9-9-10b--
2---0-0-0-0-0-0-0-0-0-0-0-0-0-0-0-0-0-0-0-0-0-0-0-0-----
e-------------------------------------------------------

this is 100% correct so yeah

email me at adooty@yahoo.com
Comments