Nirvana - Aneurysm Chords & Tabs

 

Aneurysm Chords & Tabs

Nirvana Chords & Tabs

Version: 1 Type: Bass Tab 0 ratings
1 star 2 stars 3 stars 4 stars 5 stars
comments

Aneurysm Bass Tab

   
G|---------------------------------------------------|                                         
D|---------------------------------------------------|   x2
A|--------------3-3-3-3-2-2-2-2-0-0-0-0--------------|
E|---2-2-2-2-----------------------------------------|

G|---------------------------------------------------|
D|---------------------------------------------------|
A|---------------------------------------------------|
E|-33333333333333333333333333333333333333333333333333|
im not quite sure how many times you play the chord or its timing 
[ Tab from: http://www.guitartabs.cc/tabs/n/nirvana/aneurysm_btab.html ]
G|----------------------------------||-------------------------------------|
D|----------------------------------||-------------------------------------|  x6
A|---2-2-2-2-2-2-2-2-2-2-2-2-2-2-2--||---5--5-5-5-5-5-5-5-5-5-5-5-5-5-5-5-5|
E|----------------------------------||-------------------------------------|
 
G|------------------------------------------------|
D|------------------------------------------------| x8
A|------------------------------------------------|
E|---2-2-2-2-0-0-0-0-2-2-2-2-0-0-0-0--------------|

G|----------------------------------||-------------------------------------|
D|----------------------------------||-------------------------------------|  x4
A|---2-2-2-2-2-2-2-2-2-2-2-2-2-2-2--||---5--5-5-5-5-5-5-5-5-5-5-5-5-5-5-5-5|
E|----------------------------------||-------------------------------------|

G|------------------------------------------------|
D|------------------------------------------------| x8
A|------------------------------------------------|
E|---2-2-2-2-0-0-0-0-2-2-2-2-0-0-0-0--------------|

G|---------------------------------------------------|
D|---------------------------------------------------|
A|---------------------------------------------------|
E|-33333333333333333333333333333333333333333333333333|
  
again im not quite sure how many times you play the chord or its timing 

this is how my band plays it hope you like it
Comments