Nirvana - All Apologies Chords & Tabs

 

All Apologies Chords & Tabs

Nirvana Chords & Tabs

Version: 6 Type: Tab 0 ratings
1 star 2 stars 3 stars 4 stars 5 stars
comments

All Apologies Tab

-------------------------------------------------------------------------------
			     ALL APOLOGIES - NIRVANA
-------------------------------------------------------------------------------

>>low E tuned to drop D

By:

>>intro

e|---------------------------------------------------------------------------|
B|---------------------------------------------------------------------------|
G|---------------------------------------------------------------------------|
D|-------------------------------------10/12-12-10-9-------------------------|
A|--9-9-10-9-10/12-12-10-9------10-----------------------9-10---10/12-12-10-9|
E|--0---0----0---------------0-0---0-----------------0------0----------------|
[ Tab from: http://www.guitartabs.cc/tabs/n/nirvana/all_apologies_tab_ver_6.html ]
e|---------------------------------------------------------------------------|
B|---------------------------------------------------------------------------|
G|------------11-11-9--------------------------------------------------------|
D|------------0-------12-----------------------------------------------------|
A|-----10--------------------------------------------------------------------|
E|-0-0----0------------------------------------------------------------------|

>>repeat

>>chorus
e|---------------------------------------------------------------------------|
B|---------------------------------------------------------------------------|
G|--4-----4-----4-----4-----4--4------4-----4-----4-----4-----4--4-----------|
D|---5-----5-----5-----5-----5--5------5-----5-----5-----5-----5--5----------|
A|---5-----5-----5-----5-----5--5------5-----5-----5-----5-----5--5----------|
E|---5-----5-----5-----5-----5--5------5-----5-----5-----5-----5--5----------|

>>bridge

e|---------------------------------------------------------------------------|
B|-2------2---------------2--------------------------------------------------|
G|-2------2-------2-------2--------------------------------------------------|
D|-2------2---------2-----2--------------------------------------------------|
A|-0-0----0-0-------------0--------------------------------------------------|
E|---------------------------------------------------------------------------|

>>well that's about all i know so, l8r
===============================================================================
Comments