Nirvana - All Apologies Chords & Tabs

 

All Apologies Chords & Tabs

Nirvana Chords & Tabs

Version: 4 Type: Tab 0 ratings
1 star 2 stars 3 stars 4 stars 5 stars
comments

All Apologies Tab

   
hi tell me what u think of the tab at Nirvana__1994@hotmail.com

TUNING: Low/High Db Ab Db Gb Bb Eb

Eb ----------------------|----------------------|----------------------|-
Bb ----------------------|----------------------|----------------------|-
Gb ----------------------|----------------------|----------------------|-
Db ----------------------|----------12-12-9-10--|----------------------|-
Ab ---9-10-9-12-12-9-10--|---9-10-9-------------|---9-10-9-12-12-9-10--|-
Db -0--------------------|-0--------------------|-0--------------------|-


Eb ---------------------|-
Bb ---------------------|-
Gb ----------11-11-9----|-
Db ------------------12-|-
Ab ---9-10-9------------|-
Db -0-------------------|-

That's the main riff.. Then the Chorus (According to Billy):
[ Tab from: http://www.guitartabs.cc/tabs/n/nirvana/all_apologies_tab_ver_4.html ]
Eb ----------------------------------------|-
Bb ----------------------------------------|-
Gb ----------------------------------------|-
Db -5-5-5--0-5-5-5--0-5-5-5--0-5-5-5--0--7-|-
Ab -5-5-5--0-5-5-5--0-5-5-5--0-5-5-5--0--7-|-
Db -5-5-5--0-5-5-5--0-5-5-5--0-5-5-5--0--7-|-

*****Then the Chorus (According to Pete) 

Eb ----------------------------------------|-
Bb ----------------------------------------|-
Gb --------------------------------------2-|-
Db -5-5-5--0-5-5-5--0-5-5-5--0-5-5-5--0--2-|-
Ab -5-5-5--0-5-5-5--0-5-5-5--0-5-5-5--0--0-|-
Db -5-5-5--0-5-5-5--0-5-5-5--0-5-5-5--0--0-|-

   In the sun ...                        Married, burried ....                
********************

Verse 1:
What else should I be
All apologies
What else should I say
Everyone is gay
What else could I write
I don't have the right
What else should I be
All apologies

In the sun
In the sun I feed as one
In the sun
In the sun

married
buried

Verse 2:
I wish I was like you
Easily amused
Find my nest of salt
Everything is my fault
I'll take all the blame
Aqur scafoam shame
Sunburn with freezeburn
Choking on the ashes of her enemy

Ending:

Oh no is all we are (?)
All in all we all are
Comments