Nirvana - All Apologies Chords & Tabs

 

All Apologies Chords & Tabs

Nirvana Chords & Tabs

Version: 2 Type: Bass Tab 0 ratings
1 star 2 stars 3 stars 4 stars 5 stars
comments

All Apologies Bass Tab

   
All Apologies
By: Nirvana

Tabbed by Kyle
[ Tab from: http://www.guitartabs.cc/tabs/n/nirvana/all_apologies_btab_ver_2.html ]
Drop D tuning down 1/2 step
Intro/verse
G--------------------------------------------------------------------------------------
D------------------------------------------------------------------/12---12---10---9	
A------9---10----9---/---12---12---10---9------------10--9---------------------- 
E ---0-------0----0--------0-------------------0--0----------0-----------------------
play that 3x then play this:
G--------------------------------------------------------------11--11---9------
D---------------------------------------------------------------0---0----0----12
A------9--10----9----/12---12---10---9---------10---9---------------------0
E---0-------0----0------0-------------------0--0--------0----------------------

Chorus:  G5
   "Married" A5
Outro:  Play verse riff about a hundred times 
Comments