Nirvana - Aint It A Shame Chords & Tabs

 

Aint It A Shame Chords & Tabs

Nirvana Chords & Tabs

Version: 1 Type: Tab 0 ratings
1 star 2 stars 3 stars 4 stars 5 stars
comments

Aint It A Shame Tab

This is Ain't It A Shame from the Nirvana Box Set Disc One. It starts out country like 
the last verse is their early raw punk sound. It is awesome if you have heard it.

-----------------------------|l OK I don't want to tab out the chord over
-----------------------------|l and over again so just strum along. It's
-1---------------------------|l exaclty the same.
-2---------------------------|l By # 3 Kurt starts screaming.
-2---------------------------|l
-0---------------------------|l
(1) Ain't it a shame to go fishing on a Sunday ain't it a shame.
(2) Ain't it a shame to take a drink on a sunday ain't it a shame.
(3) Ain't it a shame to beat your wife on a sunday ain't it a shame.

----------------------------1-| Again just strum along. It works out
----------------------------1-|
-4--------------------------1-|
-2--------------------------1-|
-2--------------------------1-|
----------------------------1-|
(1) Ain't it a shame to go fishing on a Sunday ain't it a shame.
(2) Ain't it a shame to take a drink on a sunday ain't it a shame.
(3) Ain't it a shame to beat your wife on a sunday ain't it a shame.
[ Tab from: http://www.guitartabs.cc/tabs/n/nirvana/aint_it_a_shame_tab.html ]
----------------------------------------|l
----------------------------------------|l
-1--------------------------------------|l
-2--------------------------------------|l
-2--------------------------------------|l
-0--------------------------------------|l
(1)Ain't it a shame to go fishing on a sunday...
(2) Ain't it a shame to take a drink on a sunday...
(3)Ain't it a shame to beat your wife on a sunday...

--------------------------------|
-2------------------------------|
-2------------------------------|
-2------------------------------|
--------------------------------|
--------------------------------|
(1) When you got Monday tuesday wednesday...
(2) When you got monday tuesday wednesday...
(3) When you got Monday tuesday wednesday...

---------------------------------|
---------------------------------|
-1-------------------------------|
-2-------------------------------|
-2-------------------------------|
-0-------------------------------|

(1) Or thursday friday saturday ain't it a shame
(2) Or thursday friday saturday ain't it a shame
(3) Or thursday friday saturday ain't it a shame

I'm pretty sure this is correct. If you listen to the song you WILL get it.
Remember those chords aren't one long note. You are supposed to strum over and over.
Comments