Nirvana - Aint It A Shame Chords & Tabs

 

Aint It A Shame Chords & Tabs

Nirvana Chords & Tabs

Version: 1 Type: Bass Tab 0 ratings
1 star 2 stars 3 stars 4 stars 5 stars
comments

Aint It A Shame Bass Tab

Intro:

G|--------------6---9------|
D|---------6-9----9---9----|
A|---7-7-9--------------7~-|
E|-------------------------|


Riff 1:

G|--------------6---9------(9)-|------------6---9-------|
D|---------6-9----9---9--------|-------6-9----9---7-9~--|
A|---7-7-9--------------7~-----|-7-7-9------------------|
E|-----------------------------|------------------------|

G|--------------6---9-----------------------------------------|
D|---------6-9----9---7-9-9-7-7-6-6-------------------9-9-----|
A|---7-7-9--------------------------9-9--7-7------0--------7~-|
E|--------------------------------------------9-7-------------|


Riff 2:

G|--------9h8�8-6------------(9)-|--------9h8�8-6-----------|
D|-----------------9-7-6---------|-----------------9-7-6-9~-|
A|---7-7-----------------7~------|---7-7--------------------|
E|-------------------------------|--------------------------|
[ Tab from: http://www.guitartabs.cc/tabs/n/nirvana/aint_it_a_shame_btab.html ]
G|-------9h8�8-6---------------------------------------------|
D|----------------9-7-6-9-9-7-7-6-6------------------9-9-----|
A|---7-7----------------------------9-9-7-7------0--------7~-|
E|-------------------------------------------9-7-------------|


Riff 3 (Riff 2 variation):

G|--------9h8�8-6------------9h8�8-6-------------9h8�8-6----------|
D|-----------------9-7-6--------------9-7-6--------------9-7-6-9~-|
A|---7-7-----------------7-7-----------------7-7------------------|
E|----------------------------------------------------------------|

G|-------9h8�8-6---------------------------------------------|
D|----------------9-7-6-9-9-7-7-6-6------------------9-9-----|
A|---7-7----------------------------9-9-7-7------0--------7~-|
E|-------------------------------------------9-7-------------|


Play it in this order:

Intro
Riff 1   x3
Riff 2   x1
Riff 1   x1
Riff 3   x1
Comments