Nirvana - Aero Zeppelin Chords & Tabs

 

Nirvana Chords & Tabs

Version: 5 Type: Tab 0 ratings
1 star 2 stars 3 stars 4 stars 5 stars
comments

Aero Zeppelin Tab

   
					
This not exactly the best nirvana's song but it sounds "cool", i like it and it's
not so hard it looks like, but trust me it's not. 



INTRO/VERSE 1

E7add#4
-----0-0-0---------------I----------0------------0-I
------------3--3----3----I-------3-----3--3----3---I
-----------------3-----3-I----3--3-----------3-----I
-------------------------I-------------------------I
-------------------------I-------------------------I
0-0----------------------I0-0----------------------I

(the picking varies heavily on this riff. These are the most usual picking patterns)

VERSE 1 ENDING
E7add#4
-----------I
------3----I
---------3-I
-----------I
-----------I
0-0--------I


RIFF 1
N.C. (E5)
--------------------I---------------------I
--------------------I---------------------I
--------------------I---------------------I
--------------------I---------------------I
--------------------I---------------------I
0-0--7--7--/10--10\-I-0-0-7--6---3--6--3--I
[ Tab from: http://www.guitartabs.cc/tabs/n/nirvana/aero_zeppelin_tab_ver_5.html ]
RIFF 2A				RIFF 2B
A5 B5	      D5          E5	N.C.
-----------------------------I-----------------------------I
-----------------------------I-----------------------------I
-----------------------------I-----------------------------I
--------------7--7--7--7-/9--I-----------------------------I
7-9-9-9-9-9-0-5--5--5--5-/7--I-----------------------------I
5-7-7-7-7-7-0----------------I8-0--0-7-0--0-6-0--0-3-2b3p0-I


RIFF 3
N.C. (E)
---------------------I
---------------------I
--------------------0I
--------------------0I
---------------------I
0---0-/5--4--0--0-4--I


VERSE 2 RIFF

E5	     A#5 E5	    G5	   
---------------I---------------I
---------------I---------------I
-------------3-I---------------I
2------------3-I-2----------5--I
2------------1-I-2----------5--I
0--------------I-0----------3--I

"hey" PART

E5
----I
----I
----I
2---I
2---I
0---I

SOLO
Mostly an improvised anti-solo (I won't tab it, and even if I tabbed it you couldn't play it :P )



I thought I'd put the structure here because this song doesn't have many riffs but it sounds 
like it has a zillion...most of them are the same with different drum parts.

INTRO 2 times
INTRO 3 times behind verse
INTROVERSE ENDING 2 times
INTRO 3 times behind verse
INTROVERSE ENDING 4 times
RIFF 1 once clean and 3 times w/dist
RIFF 2 (A and B) 4 times
RIFF 2B 3 more times
RIFF 3 4 times
VERSERIFF 4 times
RIFF 2 (A and B) 4 times
RIFF 2B 3 more times
RIFF 3 4 times
VERSERIFF 4 times
HEY PART 
SOLO
RIFF 1 4 times
RIFF 2 (A and B) 4 times
RIFF 2B 3 more times
INTRO 2 times


Kenneth Cerda. Managua, Nicaragua

Anything u want to tell me, u can, and if you're a girl, feel absolutely free to do
it. kenven_maiden@yahoo.com
Comments