Nirvana - About A Girl Chords & Tabs

 

About A Girl Chords & Tabs

Nirvana Chords & Tabs

Version: 1 Type: Tab 7 ratings
1 star 2 stars 3 stars 4 stars 5 stars
comments

About A Girl Tab

-----0-3-3--------------------------------------------------
-----0-0-0--------------------------------------------------
-x-x-0------------------------------------------------------
-2-2--------------------------------------------------------
-2-2---x-x--------------------------------------------------
-0-0---3-3--------------------------------------------------

Thats all the verses and then the chorus is:
[ Tab from: http://www.guitartabs.cc/tabs/n/nirvana/about_a_girl_tab.html ]
-0-0---------0-0-0--0-0----------------------------------------
------x-x-x----------------------------------------------------
-x-x--4-4-4--x-x-x---------------------------------------------
-2-2--5-5-5--3-3-3--x-x----------------------------------------
-3-3--0-0-0--4-4-4--4-4----------------------------------------
-0-0----------------3-3----------------------------------------

You that for the Chorus and then the solo is:

----------------------------------------------------------------
---------------------------12-----------------------------------
-------------7/9-9-9/12-12-12-----------------------------------
-------5-7-7-7/9-9-9/12-12-12-----------------------------------
---5-7----------------------------------------------------------
-0--------------------------------------------------------------

You do that solo 4 times and then the verse and the chorus, and there you have it !
Hah Ha!
Comments