Nirvana - About A Girl Chords & Tabs

 

About A Girl Chords & Tabs

Nirvana Chords & Tabs

Version: 4 Type: Bass Tab 1 rating
1 star 2 stars 3 stars 4 stars 5 stars
comments

About A Girl Bass Tab

About A Girl
Kurt Cobain

Intro/Verse:

G|----------------|x8 for intro x 8 for verse so 16 times
D|----------------|
A|----------------|
E|-0-0--3-3-3-3---|

Chorus:
G|--------------------------| x2
D|--------------------------|
A|-4-4-4--------------------|
E|-------4-4-4-2-2-2-2-2-2--|

G|-------------------------|then intro x4
D|-------2-2-2-------------|
A|-2-2-2-------3-3-3-3-3-3-|
E|-------------------------|


Solo:
[ Tab from: http://www.guitartabs.cc/tabs/n/nirvana/about_a_girl_btab_ver_4.html ]
G|---------------x8|-------------------------x2|---------------------------|
D|-----------------|---------------------------|-------2-2-2---------------|
A|-----------------|-4-4-4---------------------|-2-2-2-------3-3-3-3-3-3---|
E|-0-0--3-3-3-3----|-------4-4-4-2-2-2-2-2-2---|---------------------------|

outro:

G|---------------x6|-------------|
D|-----------------|-------------|
A|-----------------|-------------|
E|-0-0--3-3-3-3----|-0~-or-0h3---|
Comments