Nirvana - About A Girl Chords & Tabs

 

About A Girl Chords & Tabs

Nirvana Chords & Tabs

Version: 2 Type: Bass Tab 2 ratings
1 star 2 stars 3 stars 4 stars 5 stars
comments

About A Girl Bass Tab

Song:About a Girl                                   Tune down 1/2 step
Album:Bleach & MTV Unplugged in NY
Written by:Kurt Cobain

"America may be the land of the free, but there are definitely more ignorant 
people there.  Most of the population are semi-retarded."
Kurt Cobain

Intro
Eb-0--0-0-3--3-3-0--0-0-3-3-3-3-0--0-0-3-3-3-3-0--0-0-3-3-3-3
[ Tab from: http://www.guitartabs.cc/tabs/n/nirvana/about_a_girl_btab_ver_2.html ]
Verses & during guitar solo
Db---------------------5----4--
Ab--------------5/7--7----6---5
Eb-0--0-0-3-3-3----------------

Chorus
Ab-4--4-4-------------------------4--4-4---------------------
Eb--------4---4-4-2---0-2---2-2-0--------4---4-4-2--2-2---2-2


Ab--------7-7-7--------3--3-3-3------------- (For the last chorus hit
Eb-0--0-0-------5-5-5----------0--0-0-3--3-3  Eb-3-12x)


Eb-0--0-0-3-3-3-3-0--0-0-3--3-3-0--0-0-3-3-3-3


Outro (repeat 3x)
Eb-0--0-0-3--3-3-0--0-0-3-3-3-3


End with...
Eb-0--0-0-3--3-3-0-0-0-0-3-3-3-3-0

Comments