Nino Rito Carmine Coppola - Godfather Theme Chords & Tabs

 

Godfather Theme Chords & Tabs

Nino Rito Carmine Coppola Chords & Tabs

Version: 1 Type: Tab 0 ratings
1 star 2 stars 3 stars 4 stars 5 stars
comments

Godfather Theme Tab

e----8--11--10--8--11--8--10--8-------------------8--11--10--8--10--8---------------
b-8------------------------------9--11--8------8-----------------------9--8---------
g----------------------------------------------------------------------------10-----
d---------------------------------------------------------------------------------
a----------------------------------------------------------------------------------
e----------------------------------------------------------------------------------

e------------10-----------------------------------------------------------------------
b-----9--12-------------9--12--13------------11--9--9--8--11--9--9--8--8--12--13------
g-10----------------10--------------------8------------------------------------------
d-------------------------------------10--------------------------------------------
a----------------------------------------------------------------------------------
e----------------------------------------------------------------------------------
[ Tab from: http://www.guitartabs.cc/tabs/n/nino_rito_carmine_coppola/godfather_theme_tab.html ]
e---9--9--8--7--12--10----------------8------------------------------------------------------
b-----------------------11--10----11-----11----8--11--9--10--------------------------------
g---------------------------------------------------------------------------------
d---------------------------------------------------------------------------------
a----------------------------------------------------------------------------------
e----------------------------------------------------------------------------------

e----8--11--10--8--11--8--10--8-------------------8--11--10--8--10--8---------------
b-8------------------------------9--11--8------8-----------------------9--8---------
g----------------------------------------------------------------------------10-----
d---------------------------------------------------------------------------------
a----------------------------------------------------------------------------------
e----------------------------------------------------------------------------------

e------------10-----------------------------------------------------------------------
b-----9--12-------------9--12--13------------11--9--9--8--11--9--9--8--8--12--13------
g-10----------------10--------------------8------------------------------------------
d-------------------------------------10--------------------------------------------
a----------------------------------------------------------------------------------
e----------------------------------------------------------------------------------
[ Tab from: http://www.guitartabs.cc/tabs/n/nino_rito_carmine_coppola/godfather_theme_tab.html ]
it's there... my first tab so it can be wrong.
Comments