Nine Tenths - Anti-materialistic Misfit By Choice Fascion Statement Chords & Tabs

 

Anti-materialistic Misfit By Choice Fascion Statement Chords & Tabs

Nine Tenths Chords & Tabs

Version: 1 Type: Tab 0 ratings
1 star 2 stars 3 stars 4 stars 5 stars
comments

Anti-materialistic Misfit By Choice Fascion Statement Tab

   
all down strum 
   ..  .. ..       ..  ..  ..      ..  ..  ..      ..  ..  ..
e|----------------------------------------------------------------||
B|----------------------------------------------------------------||
G|-999-999-99-999----------------------------------666-666-66-666-||x2
D|-999-999-99-999--999-999-99-999--777-777-77-777--666-666-66-666-||
A|-777-777-77-777--999-999-99-999--777-777-77-777--444-444-44-444-||
E|-----------------777-777-77-777--555-555-55-555-----------------||



 "you can stare..." (i)
e|-------------------------------------||
B|-------------------------------------||
G|-9999999999999999------5555----------||
D|-9999999999999999-7777-5555-33333333-|| x2 kinda fast; first chord is 
A|-7777777777777777-7777-3333-33333333-||    is same lenght of time as 
E|------------------5555------11111111-||    last chord.


  "your standard..."   (ii)
e|----------------------------------------------||
B|----------------------------------------------||
G|-77777777----------4444555544445555-----------||
D|-77777777-55555555-4444555544445555-----------|| x2
A|-55555555-55555555-2222333322223333-----------||
E|----------33333333----------------------------||
[ Tab from: http://www.guitartabs.cc/tabs/n/nine_tenths/anti_materialistic_misfit_by_choice_fascion_statement_tab.html ]
 "i don't care..."
e|----------------------------------------------------------------||
B|----------------------------------------------------------------||
G|9-9-99999-9-9999----5555----------999999--999999----5555--------||
D|----------------77775555333333339999--999999--997777555533333333||
A|7-7-77777-7-7777777733333333333377777777777777777777333333333333||
E|----------------5555----11111111----------------5555----1111111-||

"why is it that you...."
  play the tab above marked as (ii) 

               
then play this as (iii)"hey    hey"
e|---------------------------------------------------||
B|---------------------------------------------------||repeat 2nd part
G|444455557777-----4444555544445555444455557777------|| 
D|4444555577775555-44445555444455554444555577775555--||
A|2222333355555555-22223333222233332222333355555555--||
E|------------3333-----------------------------3333--||
                   ^^^^^^^^^^^^^^^^^^^^^^^^^^^^^^^^
                  [t h i s   i s  t h e second part]

"you can stare..."
e|----------------------------------------------------------------||
B|----------------------------------------------------------------||
G|--9--9-9--9----5555-----------99--99--99--99----5555------------||
D|-9-99-9-99-7777555533333333-99999999999999997777555533333333----||
A|-----------7777333333333333-77777777777777777777333333333333----||
E|-----------5555----11111111-----------------5555----11111111----||


then play parts  (ii) (i) (ii) (iii)


strum on clean channel with reggae/slow ska stroke
e|--------------------------------||
B|-77-88-99-66-77-88-99-1010------||
G|-77-77-99-55-77-77-99-9-9-------||
D|--------------------------------||
A|--------------------------------||
E|--------------------------------||
Comments