Nine Inch Nails - Wish Chords & Tabs

 

Wish Chords & Tabs

Nine Inch Nails Chords & Tabs

Version: 1 Type: Tab 0 ratings
1 star 2 stars 3 stars 4 stars 5 stars
comments

Wish Tab

#----------------------------------PLEASE NOTE---------------------------------#
#This file is the author's own work and represents their interpretation of the #
#song. You may only use this file for private study, scholarship, or research. #
#------------------------------------------------------------------------------##
From: switzerd@freenet3.scri.fsu.edu (David Eli Switzer)
Subject: Tab: Nine Inch Nails "Wish"


Wish off of Broken by nineinchnails
(someone requested some, so here's one)
This has been in a guitar magazine, but only
thing I needed it for was the synth lines over the vocals.


Play this bit during the vocals:
("riff A")
-----------------------|-------------
-----------------------|----12-12-12-
-14/16\14-12---12---14-|-14----------
-----------------------|-------------
-----------------------|-------------
-----------------------|-------------

But I am the one usually screaming (err, singing), and
that lead line is a bit touch while screaming, so I usually
get my bassist to play it like so:
(Which actually I think sounds better)
-----------------------|--------------
-----------------------|----9--9--9---
-12/14\12-10---10--12--|-12-----------
-----------------------|--------------

So ya play that while you sing the verses.. so you sing
a line, then hit the chords, which are as follows:
(for this, strum up and down, slam all the chords, go
bonkers.. this is nin, the more noise the better)

("riff b")
-----------------------------------
-----------------------------------
-7-7-7-7-7-8-7--7-7-7-7-7-8-7------
-7-7-7-7-7-8-7--7-7-7-7-7-8-7------
-5-5-5-5-5-6-5--5-5-5-5-5-6-5------
-----------------------------------

So:

RiffA				       Riff B
This is the first day, of my last days ...................
(a) Build it up, now take it apart, climbed up real high, now falldown
real far (b)
(a) No need for me to stay, last thing left, I just threw it away! (b)
(a) my faith in god, or  my trust in you, now there's nothing more fucked
up I can do! (b)
(at the last line, play the "riff b", pause a sec, then do it again)

Chorus is basically "riff b" plus 2 chords:

----			       ---	
-10-			       -5-	
-10-			       -5-	
-10-			       -5-
-8--			       -3-				Riff B
----			       ---	

Wish there was something real, wish there was something true.
Wish there was something real, in this world full of you!


Next verse (same guitar parts)
Now I'm the one without a soul, I'm the one  with this big fucking hole!
No new tale to tell, 26 years, on my way to hell.
Gotta listen to your big time hard line bad luck FIST FUCK!
Well don't think you're having all the fun, you know me, I hate EVERYONE!

Back to chorus, but throw in more "This world full of YOU!"

Then it's basically a jam time, with a distorted synth line,
and i'll tell ya, it's pretty easy if you have other people going
nuts with this behind you to go from the "riff b" to the synth
line, and make it sound nice and full. It's really easy.
For the line, I drop low E to a D so I can just use 1 finger.
You know the part, listen to the music:

(Ugh, time is slim, I'll just show the fret on the low-e (now a d),
and you understand, just press down all the strings there)

-5-3-5-6-5-3-0---5-3-5-6-5-3-0------

Have fun. It's a great song to let loose on.
-- 
| David Eli Switzer
| switzerd@freenet.acns.fsu.edu
| Moderator of freenet.kids.*
| Future bumpersticker: I'd rather be REALLY USING THE INTERNET!


From: SPEX49D@prodigy.com (JOHN VETTESE )

Sorry if this is screwed up...
WISH by NINE INCH NAILS (Trent Reznor)

This is the first day of my
                     last days.
Rhythem Fig. 1                                      end Rhythem Fig. 1
|--------------|--------------|--------------------|--------------------
|
|--------------|--------------|--------------------|--------------------
|
|--------------|--------------|-7--7-7-7-7--7-8-7--|-7--7-7-7-7--7-8-7--
|
|--------------|--------------|-7--7-7-7-7--7-8-7--|-7--7-7-7-7--7-8-7--
|
|--------------|--------------|-5--5-5-5-5--5-6-5--|-5--5-5-5-5--5-6-5--| 
|--------------|--------------|--------------------|--------------------
|

w/Rhythem Fig. 1 (3 times)
Build it up now take it apart climbed up real high now fall down real far.

No need for me to stay, the last thing left, I just threw it away.
Put my faith in God, put my trust in you, now there's nothing more 
fucked  up I could do.
[ Tab from: http://www.guitartabs.cc/tabs/n/nine_inch_nails/wish_tab.html ]
                                             Wish there was something
                                             Rhythem Fig. 2
|---------------------|--------------------|------------------------| |----
-----------------|--------------------|------------------------| |-7--7-7-
7-7---7-8-7--|-7--7-7-7-7--7-8-7--|-10---------------------| |-7--7-7-7-7-
--7-8-7--|-7--7-7-7-7--7-8-7--|-10---------------------| |-5--5-5-5-5---5-
6-5--|-5--5-5-5-5--5-6-5--|--8---------------------| |--------------------
-|--------------------|------------------------|
  real, wish there was something true.
|------------------------------|--------------------|--------------------
|
|------------------------------|--------------------|--------------------
|
|-5----------------------------|-7--7-7-7-7--7-8-7--|-7--7-7-7-7--7-8-7--
|
|-5----------------------------|-7--7-7-7-7--7-8-7--|-7--7-7-7-7--7-8-7--
|
|-3----------------------------|-5--5-5-5-5--5-6-5--|-5--5-5-5-5--5-6-5--
|
|------------------------------|--------------------|--------------------
|

 Wish there was something real in this world full of you.
|------------------------|--------------------------|--------------------
| |------------------------|--------------------------|-------------------
-| |-10---------------------|-5------------------------|-7--7-7-7-7--7-8-
7--| |-10---------------------|-5------------5----6------|-7--7-7-7-7--7-
8-7--| |--8---------------------|-3------------5----6------|-5--5-5-5-5--
5-6-5--| |------------------------|--------------3----4------|------------
--------|

 end Rhythem Fig. 2
|--------------------|
|--------------------|
|-7--7-7-7-7--7-8-7--|
|-7--7-7-7-7--7-8-7--|
|-5--5-5-5-5--5-6-5--|
|--------------------|




w/Rhythem Fig. 1 (4 times)
I'm the one without a soul, I'm the one with this big fucking hole.
No new tale to tell, 26 years on my way to hell.
Gotta listen big time hard line bad luck fist fuck.
Don't think you're having all the fun, you know me, I hate everyone.

w/Rhythem Fig. 2
Wish there was something real, wish there was something true.
Wish there was something real in this world full of you

I can't turn back but I want to but I can't turn back but I want to
Rhythem Fig. 3                                   end Rhythem Fig. 3
|-----------|------------------|----------------|------------------|
|-----------|------------------|----------------|------------------| |-7---
------|-5----------------|----------------|------------------| |-7--------
-|-5----------------|-6--------------|-3----------------|
|-5---------|-3----------------|-6--------------|-3----------------| |-----
------|------------------|-4--------------|-1----------------|
 
w/Rhythem Fig. 3 (3 times)
I can't turn back but I want to but I can't turn back but I want to
I can't turn back but I want to but I can't turn back but I want to
I can't turn back but I want to but I can't turn back but I want to

Rhythem Fig. 4
|--------------------|--------------------|
|--------------------|--------------------|
|-7--7-7-7-7--7-8-7--|-7--7-7-7-7--7-8-7xx|
|-7--7-7-7-7--7-8-7--|-7--7-7-7-7--7-8-7xx|
|-5--5-5-5-5--5-6-5--|-5--5-5-5-5--5-6-5xx|
|--------------------|--------------------|

w/Rhythem Fig. 4 (3 times)

w/Rhythem Fig. 2 (2 times)
Wish there was something real, wish there was something true.
Wish there was something real in this world full of you.
Wish there was something real, wish there was something true.
Wish there was something real in this world full of you. This world full 
of

w/Rhytehm Fig. 4 (2 times)
you. This world full of
you. This world full of..



|--------------------|------------|-------------------|-------------------
| |--------------------|------------|-------------------|-----------------
--| |-7--7-7-7-7--7-8-7--|-7--5-------|-7--7-7-7-7--7-8xxx|-7--7-7-7-7--7-
8xxx| |-7--7-7-7-7--7-8-7--|-7--5--6--3-|-7--7-7-7-7--7-8xxx|-7--7-7-7-7--
7-8xxx| |-5--5-5-5-5--5-6-5--|-5--3--6--3-|-5--5-5-5-5--5-6xxx|-5--5-5-5-
5--5-6xxx| |--------------------|-------4--1-|-------------------|--------
-----------|

|-------------------|------------|-------------------|---------------| |-
------------------|------------|-------------------|---------------| |-7--
7-7-7-7--7-8xxx|-7--5-------|-7--7-7-7-7--7-8xxx|7--7-7-7-7-8xxx| |-7--7-
7-7-7--7-8xxx|-7--5--6--3-|-7--7-7-7-7--7-8xxx|7--7-7-7-7-8xxx| |-5--5-5-
5-5--5-6xxx|-5--3--6--3-|-5--5-5-5-5--5-6xxx|5--5-5-5-5-6xxx| |-----------
--------|-------4--1-|-------------------|---------------|

|--------------------|------------|
|--------------------|------------|
|-7--7-7-7-7--7-8xxx-|-7--5-------|
|-7--7-7-7-7--7-8xxx-|-7--5--6--3-|
|-5--5-5-5-5--5-6xxx-|-5--3--6--3-|
|--------------------|-------4--1-|

Gtr 1
|-----------------|-----------------|-----------------|-------------|
|-----------------|-----------------|-----------------|-------------|
|.7--7-7-7-7-8xxx-|-7--7-7-7-7-8xxx-|-7--7-7-7-7-8xxx-|-7--5-------.|
|.7--7-7-7-7-8xxx-|-7--7-7-7-7-8xxx-|-7--7-7-7-7-8xxx-|-7--5--6--3-.|
|-5--5-5-5-5-6xxx-|-5--5-5-5-5-6xxx-|-5--5-5-5-5-6xxx-|-5--3--6--3--|
|-----------------|-----------------|-----------------|-------4--1--|

Gtr 2
|---------------------|---------------------|--------------------|----|
|---------------------|---------------------|--------------------|----|
|.12-10-12-13-10------|-12-10-12-13-10------|-12-10-12-13-10-----|10-.|
|.---------------10-12|----------------10-12|---------------10-12|-/-.|
|---------------------|---------------------|--------------------|-/--|
|---------------------|---------------------|--------------------|-/--|
                                THE END

                                  WISH
                    Music and Lyrics by Trent Reznor
                      (c) 1992 Interscope Records
Comments