Nine Inch Nails - The Wretched Chords & Tabs

 

The Wretched Chords & Tabs

Nine Inch Nails Chords & Tabs

Version: 1 Type: Bass Tab 0 ratings
1 star 2 stars 3 stars 4 stars 5 stars
comments

The Wretched Bass Tab

   
Group:NIN
Song:The Wretched
Bassist:Trent Reznor
Album:The Fragile
Tabber:ratm_timc


ok this is one of my fav nin songs with a simple bassline so enjoy.


Intro/Verse/
G------------------------
D-------10-6--------11-9-
A-7-8-9-------7-8-9------
E------------------------
[ Tab from: http://www.guitartabs.cc/tabs/n/nine_inch_nails/the_wretched_btab.html ]
Chorus
"this is what it feels like..."
G-------------------
D-------------------
A-3-0---------------
E-----3-3-3-2-0-0-0-

Solo(im not sure if there is bass here but it sounds like it)
G--------------
D--------------
A--------------
E-5-7-6-7-6/11-

thats basically the whole song i hape u enjoy it cuz i took the time to do it.
plz rate if u like or if u dont.
                      ratm_timc
Comments