Nine Inch Nails - The Only Time Chords & Tabs

 

The Only Time Chords & Tabs

Nine Inch Nails Chords & Tabs

Version: 1 Type: Bass Tab 0 ratings
1 star 2 stars 3 stars 4 stars 5 stars
comments

The Only Time Bass Tab

Song Title: The Only Time
Artist: nine inch nails
----------------------------------------------

This tab was done off the bootleg 'Purest Feeling'. The bass line for
the version i tabbed is the same as the one on PHM, but i like this beat
better. This is the main line repeated (almost) endlessly=

[ Tab from: http://www.guitartabs.cc/tabs/n/nine_inch_nails/the_only_time_btab.html ]
   I'm drunk...
G:-------------------:
D:-------------0-0---:
A:-----0-0---------3-:
E:-------------------:

and this is in one or two parts=

G:-------------------:
D:----------0-0------:
A:--0-0---0-----3-03-:
E:------3------------:

It's really easy. Just listen to the song and play til your fingers bleed.



Comments