Nine Inch Nails - The Fragile Chords & Tabs

 

The Fragile Chords & Tabs

Nine Inch Nails Chords & Tabs

Version: 3 Type: Tab 0 ratings
1 star 2 stars 3 stars 4 stars 5 stars
comments

The Fragile Tab

 I saw this solo here but it looked too plain to me so here is the way I play it maybe 
of you will like it.If there is any questions please email me at amnesiacphoenix@yahoo.com.
[ Tab from: http://www.guitartabs.cc/tabs/n/nine_inch_nails/the_fragile_tab_ver_3.html ]
e>--------------------------------------------------------------------------|
b>--------------------------------------------------------------------------|
g>--------------------------------------------------------------------------|
d>-5----------5-12-----------------5----------------------5-----------------|
a>---3-------------8-----7-8---------3--------7-7-8---------3-------7-7-7-7-|
e>-----6-6-3---------8-7-----8-8-7------6-6-3-------8-8-7-----6-6-3---------|

e>----------------------------------------------------------------|
b>----------------------------------------------------------------|
g>----------------------------------------------------------------|
d>-----------------------------------------12---------------------|
a>-8-8-8-8--------------8-10---10-12----10-----------8-7----------|
e>---------6-8-10/11\10------8-------10-------13-8-7-----6~~~3~~~-|

   I like to mix both a grunge dist. pedal and an amps dist. channel to get a real nice 
kind of dist. sound. (/,\)slide (~)vibrato.This solo and the track The Frail are exactly 
same The Frail is just slowed down and on piano.
Comments