Nine Inch Nails - The Fragile Chords & Tabs

 

The Fragile Chords & Tabs

Nine Inch Nails Chords & Tabs

Version: 3 Type: Bass Tab 0 ratings
1 star 2 stars 3 stars 4 stars 5 stars
comments

The Fragile Bass Tab

The Fragile - Nine Inch Nails

By: Jon Craven (i_apathy@hotmail.com)
For questions, comments, feedback, an outline of the timing, write the above
address.

Note:
  -The tempo seems between 71 and 72 bpm; using a metrinome, you'll notice it
seems off.

(4/4, changes noted)(72 bpm)
Standard tuning

r - eighth rest
/ - slide up
\ - slide down
R - quarter rest
|-R-| - rest for one measure

Verse 1: (x4)(0:03)
|----------------|----------------|----------------|----------------|
|----------------|----------------|----------------|----------------|
|------8-8-------|--------3-3-2-r-|------8-8-------|----------------|
|3---r-------r-1-|1---r-1---------|3---r-------r-1-|1---r-1/3-\-R---|

Chorus 1: (0:56)
|----------------|----------------|----------------|--|------------|
|----------------|----------------|----------------|6:|------------|
|5-5-5-5-6-6-6-8-|8-8-8-8---------|5-5-5-5-6-6-6-8-|8:|8-8-8-8-----|
|----------------|--------3-3-3-3-|----------------|--|--------3-3-|

|----------------|----------------|----------------|--|--------|
|----------------|----------------|----------------|2:|--------|
|5-5-5-5-6-6-6-8-|8-8-8-8---------|5-5-5-5-6-6-6-8-|4:|8-8-8-8-|
|----------------|--------3-3-3-3-|----------------|--|--------|
[ Tab from: http://www.guitartabs.cc/tabs/n/nine_inch_nails/the_fragile_btab_ver_3.html ]
Verse 2: (1:21)
|----------------|----------------|----------------|----------------|
|----------------|----------------|----------------|----------------|
|------8-8-------|--------3-3-2-r-|------8-8-------|----------------|
|3---r-------r-1-|1---r-1---------|3---r-------r-1-|1---r-1/3-\-R---|

|----------------|----------------|----------------|--|--------|
|----------------|----------------|----------------|2:|--------|
|------8-8-------|--------3-3-2-r-|------8-8-------|4:|--------|
|3---r-------r-1-|1---r-1---------|3---r-------r-1-|--|1---r-1-|

Chorus 2 (solo/outro): (x4)(1:46)
|----------------|----------------|
|----------------|----------------|
|5-5-5-5-6-6-6-8-|8-8-8-8---------|
|----------------|--------3-3-3-3-|

Interlude: (2:13)(played softly)
|---|---|---|---|---|---|---|---|---|---|----------------|----------------|
|---|---|---|---|---|---|---|---|---|---|----------------|----------------|
|---|---|---|---|---|---|---|---|---|---|8-8-8-8-8-8-8-8-|8-8-8-8-8-8-8-8-|
|-R-|-R-|-R-|-R-|-R-|-R-|-R-|-R-|-R-|-R-|----------------|----------------|

|----------------|----------------|----------------|----------------|
|----------------|----------------|----------------|----------------|
|----------------|----------------|8-8-8-8-8-8-8-8-|8-8-8-8-8-8-8-8-|
|6-6-6-6-6-6-6-6-|6-6-6-6-6-6-6-6-|----------------|----------------|

|----------------|----------------|
|----------------|----------------|
|----------------|----------------|
|6-6-6-6-6-6-6-6-|6-6-6-6-6-6-6-6-|

Solo (x8)
Outro (x4) 
Rest till end
Comments