Nine Inch Nails - Terrible Lie Acoustic Chords & Tabs

 

Terrible Lie Acoustic Chords & Tabs

Nine Inch Nails Chords & Tabs

Version: 1 Type: Tab 1 rating
1 star 2 stars 3 stars 4 stars 5 stars
comments

Terrible Lie Acoustic Tab

   

Song: Terrible Lie (Acoustic)
Artist: Unknown
Tabbed by: James Zabik

Standard tuning
p = pull-off

Chords used:
   Em      Cadd9     G       D      Dsus4    p D  
e---0--------3-------3-------2--------3-----3p2----------
B---0--------3-------3-------3--------3------------------
G---0--------0-------0-------2--------2------------------
D---2--------2-------0-------0--------0------------------
A---2--------3-------2-------0--------0------------------
E--------------------3-----------------------------------


Intro:
   Em      Cadd9     G       D      Dsus4  p D

Verse:
   Em                              Cadd9
Hey God, Why are you doing this to me?
G                       D                   Dsus4   p D
Am I not living up to what I'm supposed to be?
Em                                 Cadd9
Why am I seething with this animousity?
     G                          D             Dsus4  p D
Hey God, I think you owe me a great big apology.

Chorus:
   Em          Cadd9               G          Dsus4  p D
Terrible Lie            Terrible Lie
   Em          Cadd9               G          Dsus4  p D
Terrible Lie            Terrible Lie
[ Tab from: http://www.guitartabs.cc/tabs/n/nine_inch_nails/terrible_lie_acoustic_tab.html ]
Bridge
e--0---------3--------3-3--3--------2---3--2--------------
B--0---------3--------3-3--3--------3---------------------
G--0---------0--------0-0--0--------2---------------------
D--2---------2--------2-2--0--------0---------------------
A--2---------3--------3-3--2--------0---------------------
E--------------------------3------------------------------
("Don't take it away from me...")

(continued)
e--0-0-----0--3-3-----3-3--3--------2---2--2--------------
B--0-0-----0--3-3-----3-3--3--------3---3----3------------
G--0-0-----0--0-0-----0-0--0--------2---2------2----------
D--2-2-----2--2-2-----2-2--0--------0---0--------0--------
A--2-2-----2--3-3-----3-3--2--------0---0-----------------
E--------------------------3------------------------------

Ad Lib the picked parts with the same chords.

Listen to the song and you'll easily figure it out.
You can Download the song...it it usually under the badn Tool or A perfect Circle, but i think its is just an unkown band.


Full Lyrics:

Hey God, why are you doing this to me?
Am I not living up to what I'm supposed to be?
Why am I seething with this animosity?
Hey God, I think you owe me a great big apology
Terrible Lie
Terrible Lie
Terrible Lie
Terrible Lie
Hey God, I really don't what you mean
Seems like salvation only in my dreams
I feel my hatred grow the more extreme
Hey God, can this world really be as sad as it seems?
Terrible Lie
Terrible Lie
Terrible Lie
Terrible Lie
Don't take it away from me, i need someone to hold on to
Don't take it away from me, i need you to hold on to
Don't take it away from me, i need someone to hold on to
Don't take it
Don't take it
Don't take it
Hey God
Hey God
Hey God
Hey God
Hey God, theres nothing left for me to hide
I lost my ignorance, security, and pride
I'm all alone in this fucking world you must despise
Hey God, I believe your promises, your promises we're lies
Terrible Lie...
Terrible Lie
Terrible Lie
You make me throw it all away
My morals left to decay
How many you betray
You've taken everything
My head is filled with disease
My skin is begging you to please
I'm on my hands and knees
I wanted so much to believe
Hey God
Hey God
Hey God

Comments