Nine Inch Nails - Sanctified Chords & Tabs

 

Sanctified Chords & Tabs

Nine Inch Nails Chords & Tabs

Version: 3 Type: Bass Tab 0 ratings
1 star 2 stars 3 stars 4 stars 5 stars
comments

Sanctified Bass Tab

   
this song has been tabbed once before as far as i know and its not right (in my opinion)
so here is my thoughts on it.

regular tunig:G D A E

Note: if you listen to the song you'll probably think it has some destortion, this
however is not the case. just turn the bass down on your amp and have treble up as
far as it will go. its one of the coolest bass lines ever. enjoy!!!

bass starts (0:18)    after drum intro
[ Tab from: http://www.guitartabs.cc/tabs/n/nine_inch_nails/sanctified_btab_ver_3.html ]
|-------9-----|-------9-----|-------9-----|-------9-----|
|-------------|-------------|-------------|-------------|
|---7-------8-|---7---------|---7-------8-|---7---------|
|-0---0---0---|-0---0---0-3-|-0---0---0---|-0---0---0-3-|


this continues the whole way up untill  (3:17)
                 (3:17)-(3:53) = drum interlude
                               
|------|-------9------|-------9------|
|------|--------------|--------------|
|------|---7-------8^-|---7----------|
|-/12\-|-0---0---0----|-0---0---0-3^-|

^=bend

the only variations heard are occasionally bending the '8' and '3'

at (3:16) bend the last note and sustain it untill it just fades out.

Thats your lot. Enjoy. I have tried to submit this so many times.
Comments