Nine Inch Nails - Right Where It Belnogs Chords & Tabs

 

Right Where It Belnogs Chords & Tabs

Nine Inch Nails Chords & Tabs

Version: 1 Type: Bass Tab 0 ratings
1 star 2 stars 3 stars 4 stars 5 stars
comments

Right Where It Belnogs Bass Tab

Artist:NineInch Nails
Song:Right Where It Belongs
Album:With Teeth
Tabbed by :Greg carlin

im not sure if its right but it sounds good enough to me 

Part 1 (Verses)
     X3        X1
G|--------|--------|
D|--------|--------|
A|----5-3-|----5-7-|
E|--5-----|--5-----|

Part 2 (chorus)
[ Tab from: http://www.guitartabs.cc/tabs/n/nine_inch_nails/right_where_it_belnogs_btab.html ]
G|------------|------------|
D|------------|------------|
A|----5-7-8---|----5-7-8---|
E|--5-------8-|--5-------8-|

Part 1 (Verses)
     X3        X1
G|--------|--------|
D|--------|--------|
A|----5-3-|----5-7-|
E|--5-----|--5-----|


Part 2 (chorus)

G|------------|------------|
D|------------|------------|
A|----5-7-8---|----5-7-8---|
E|--5-------8-|--5-------8-|

this is a really good song and Enjoy
Comments