Nine Inch Nails - Piggy Chords & Tabs

 

Piggy Chords & Tabs

Nine Inch Nails Chords & Tabs

Version: 6 Type: Bass Tab 0 ratings
1 star 2 stars 3 stars 4 stars 5 stars
comments

Piggy Bass Tab

Piggy: 
the spaces between the notes are for the counting.... 1 2 3 4 etc...
The slide in the verse is 1 beat.

Verse 1:
------------------------------------------------------------------|
--------------------------------------------------------------3\2-|
-------4------------------------------4---------------------------| x2
-6-------------4-----3----------6-------------4-----3-------------|

------------------------------------------------------------------|
------------------------------------------------------------------|
-------4------------------------------4---------------------------|
-6-------------4-----3----------6-------------4-------------------|


Chorus: twice (alternating ABAB)
--------------------------------------------------------|
--------------------------------------------------------|
----------------------------------------------2-2---4-4-|
-4-6-6-------4-6-6-6-----4-6-6-----4-6-6-6--------------|

--------------------------------------------------------|
--------------------------------------------------------|
--------------------------------------------------------|
-4-6-6-------4-6-6-6-----4-6-6-----4-6-6-6---4-6-7------|

[ Tab from: http://www.guitartabs.cc/tabs/n/nine_inch_nails/piggy_btab_ver_6.html ]
Verse 2:
------------------------------------------------------------------|
--------------------------------------------------------------3\2-|
-------4------------------------------4---------------------------| x2
-6-------------4-----3----------6-------------4-----3-------------|

-----------------------|
-----------------------|
-------4---------------|
-6-------------4-----3-|


Chorus: twice (alternating ABAB)
--------------------------------------------------------|
--------------------------------------------------------|
----------------------------------------------2-2---4-4-|
-4-6-6-------4-6-6-6-----4-6-6-----4-6-6-6--------------|

--------------------------------------------------------|
--------------------------------------------------------|
--------------------------------------------------------|
-4-6-6-------4-6-6-6-----4-6-6-----4-6-6-6---4-6-7------|


Bridge: eight times
----------------------------------------------------|
----------------------------------------------------|
----------------------6-6-6-6-------------4-4---3-3-|
-4-6-6-6----2-2-2-2-------------4-4-4-4-------------|

----------------------------------------------------|
----------------------------------------------------|
----------------------6-6-6-6-----------------------|
-4-6-6-6----2-2-2-2-------------4-4-4-4-------------|
Comments