Nine Inch Nails - Piggy Chords & Tabs

 

Piggy Chords & Tabs

Nine Inch Nails Chords & Tabs

Version: 5 Type: Bass Tab 0 ratings
1 star 2 stars 3 stars 4 stars 5 stars
comments

Piggy Bass Tab

   
NIN:PIGGY
BASS

Verse
G---------------------
D-----------------3-2-
A-2-5-----2-5---------
E-----5-4-----5-4-----
[ Tab from: http://www.guitartabs.cc/tabs/n/nine_inch_nails/piggy_btab_ver_5.html ]
Chorus(Nothing can stop me now)
G---------------------------------------------------
D---------------------------------------------------
A-0222-0222-0222-0222-33-55-0222-0222-0222-0222-023-
E---------------------------------------------------

Outro
G------------------------------------------------
D----------2222------------------------2222------
A-0222-0--------0000-55-44--0222-0----------0000-
E-------333------------------------333-----------
Comments