Nine Inch Nails - Physical Youre So Chords & Tabs

 

Physical Youre So Chords & Tabs

Nine Inch Nails Chords & Tabs

Version: 1 Type: Tab

Physical Youre So Tab

This is My first Tab So Yeah!
My Name is Jo Email me If theres somthing Wrong!
maggot_666jo666@hotmail.com
There Are 2 Guitars In This song so yeah One Guitar For Each Part!
P.M = Palm Mute
/ = Slide down
x = repeat
^ Bend String
Intro
------------------------|  Also Repeat This Whole part thru the whole song 
------------------------|  Until you get to the Chorus!
------------------------|
--2--2--2--2--2--2--2--2|
--2--2--2--2--2--2--2--2|
--0--0--0--0--0--0--0--0|
P.M--------------------->

--------------------------------------------------|
--------------------------------------------------|
--------------------------------------------------|
----------2--2--0--2--0--2--2--0--2--0--5--0--5---|
-/-12-----2--2--0--2--0--2--2--0--2--0--5--0--5---|
-/-12-----0--0--0--0--0--0--0--0--0--0--3--0--3---|
                                     P.M   P.M


------------------------------------------|
------------------------------------------|
------------------------------------------|
--2--2--0--2--0--2--2--0--2--0--5--0--5---|
--2--2--0--2--0--2--2--0--2--0--5--0--5---|
--0--0--0--0--0--0--0--0--0--0--3--0--3---|
                             P.M   P.M


e------------------------------------------|
b------------------------------------------|
g------------------------------------------|
d--2--2--0--2--0--2--2--0--2--0--5--0--5---|
a--2--2--0--2--0--2--2--0--2--0--5--0--5---|
d--0--0--0--0--0--0--0--0--0--0--3--0--3---|
                             P.M   P.M

------------------------------------------|-----|
------------------------------------------|-----|
------------------------------------------|-----|
--2--2--0--2--0--2--2--0--2--0--7--0--7---|--2--|
--2--2--0--2--0--2--2--0--2--0--5--0--5---|--2--|
--0--0--0--0--0--0--0--0--0--0-----0------|--0--|
                                              Let it Ring!


-----------------------------------------|
-----------------------------------------|
-----------------------------------------|
--7--7-2--2--0--2--0--2--2--0--7--0--7---|
--5--5-2--2--0--2--0--2--2--0--5--0--5---|
-------0--0--0--0--0--0--0--0-----0------|


------------------------------------------|
------------------------------------------|
------------------------------------------|
--2--2--0--2--0--2--2--0--2--0--7--0--7---|
--2--2--0--2--0--2--2--0--2--0--5--0--5---|
--0--0--0--0--0--0--0--0--0--0------------| 


------------------------------------------|
------------------------------------------|
------------------------------------------|
--2--2--0--2--0--2--2--0--2--0--7--0--7---|
--2--2--0--2--0--2--2--0--2--0--5--0--5---|
--0--0--0--0--0--0--0--0--0--0------------|
[ Tab from: http://www.guitartabs.cc/tabs/n/nine_inch_nails/physical_youre_so_tab.html ]
---------------------------------------|
---------------------------------------|
---------------------------------------|
--2--2--0--2--0--2--2--0--2--0--0------|
--2--2--0--2--0--2--2--0--2--0--0------|
--0--0--0--0--0--0--0--0--0--0--0------|

chorus Both guitars!

-----------------------------|-----|
-----------------------------|-----|
---------------------------7-|-----|
--7-7-7-7-7-7-7-7-7-7-7-7--7-|--2--|
--7-7-7-7-7-7-7-7-7-7-7-7--5-|--2--|
--5-5-5-5-5-5-5-5-5-5-5-5----|--0--|

------------------------|  
------------------------|  
------------------------|
--2--2--2--2--2--2--2--2|
--2--2--2--2--2--2--2--2|
--0--0--0--0--0--0--0--0|
P.M--------------------->

----------------------------------|-----|
----------------------------------|-----|
-----------------------------7-7-7|-----|
----7-7-7-7-7-7-7-7-7-7-7-7--7-7-7|--2--|
-5--7-7-7-7-7-7-7-7-7-7-7-7--5-5-5|--2--|
-3--5-5-5-5-5-5-5-5-5-5-5-5-------|--0--|

------------------------| 
------------------------|  
------------------------|
--2--2--2--2--2--2--2--2|
--2--2--2--2--2--2--2--2|
--0--0--0--0--0--0--0--0|
P.M--------------------->


------------------------------------------|
------------------------------------------|
------------------------------------------| x9 times
--2--2--0--2--0--2--2--0--2--0--5--0--5---|
--2--2--0--2--0--2--2--0--2--0--5--0--5---|
--0--0--0--0--0--0--0--0--0--0--3--0--3---|



-----------------------------|-----|
-----------------------------|-----|
---------------------------7-|-----|
--7-7-7-7-7-7-7-7-7-7-7-7--7-|--2--|
--7-7-7-7-7-7-7-7-7-7-7-7--5-|--2--|
--5-5-5-5-5-5-5-5-5-5-5-5----|--0--|

------------------------|  
------------------------|  
------------------------|
--2--2--2--2--2--2--2--2|
--2--2--2--2--2--2--2--2|
--0--0--0--0--0--0--0--0|
P.M--------------------->

----------------------------------|-----|
----------------------------------|-----|
-----------------------------7-7-7|-----|
----7-7-7-7-7-7-7-7-7-7-7-7--7-7-7|--2--|
-5--7-7-7-7-7-7-7-7-7-7-7-7--5-5-5|--2--|
-3--5-5-5-5-5-5-5-5-5-5-5-5-------|--0--|

------------------------| 
------------------------|  
------------------------|
--2--2--2--2--2--2--2--2|
--2--2--2--2--2--2--2--2|
--0--0--0--0--0--0--0--0|
P.M--------------------->


------------------------------------------|
------------------------------------------|
------------------------------------------|
--2--2--0--2--0--2--2--0--2--0--5--0--5---|  x9 times
--2--2--0--2--0--2--2--0--2--0--5--0--5---|
--0--0--0--0--0--0--0--0--0--0--3--0--3---|
                             P.M   P.M
--------------------------------------------------|
--------------------------------------------------|
--------------------------------------------------|
--2--9--7--------2--9--7--------2--9--7-----------|
--2--7--5--7--5--2--7--5--7--5--2--7--5--7--5-----|
--0--------5--3--0--------5--3--0--------5--3-----|