Nine Inch Nails - Only Chords & Tabs

 

Only Chords & Tabs

Nine Inch Nails Chords & Tabs

Version: 3 Type: Tab

Only Tab

nine inch nails

only


intro
|-------------------------------------|
|-------------------------------------|
|-------------------------------------|
|-------------------------------------|
|------------------5--7---------------|
|--5--7--0--2------------0--2---------|


verse
|-------------------------------------------------------------------|
|-------------------------------------------------------------------|
|-------------------------------------------------------------------|
|-------------------------------------------------------------------|
|-------------------------------------------------------------------|
|--2--2--5--0---0--2--2--5--0-----2--2--5--0---0--2--2--5--0--------|


synth
|-------------------------------------------------------------------|
|-------------------------------------------------------------------|
|--4------9------2------7---------4------9------2------7------------|
|--4------9------2------7---------4------9------2------7------------|
|--2------7------0------5---------2------7------0------5------------|
|-------------------------------------------------------------------|


pre-chorus
|-------------------------------------------------------------------|
|------------------------------s>-----------------------------------|
|--4--5------2--4----2--4----(2)--4--5------2--4--------------------|
|-------------------------------------------------------------------|
|-------------------------------------------------------------------|
|-------------------------------------------------------------------|
[ Tab from: http://www.guitartabs.cc/tabs/n/nine_inch_nails/only_tab_ver_3.html ]
chorus
|-------------------------------------|
|-------------------------------------|
|-------------------------------------|
|-------------------------------------|
|------------------5--7---------------|
|--5--7--0--2------------0--2---------|


post chorus                               (this dosen't sound exactlly
|-------------------------------------|      right but its how trent   
|-------------------------------------|          played it live)
|-------------------------------------|
|---9----------19---------------------|
|---9----------19---------------------|
|---9----------19---------------------|


pos chorus      (album version)           ( / ) - pick several times
|-------------------------------------|        
|---------------10/////////-----------|          
|-------------------------------------|
|----9///////-------------------------|
|-------------------------------------|
|-------------------------------------|


outro
|---------------------------------------------------------|
|---------------------------------------------------------|
|---------------------------------------------------------|
|---4----2-----4-s>-6--4-