Nine Inch Nails - Only Chords & Tabs

 

Only Chords & Tabs

Nine Inch Nails Chords & Tabs

Version: 2 Type: Tab

Only Tab

Nine Inch Nails - Only
[With_Teeth] Interscope Records, 2005
Drop B tunning: BADGBE

^   Bend
~   Let Note ring
/   Slide


First bass riff, and chorus riff..

e)---------------------------|
B)---------------------------|
G)---------------------------|
D)---------------------------|
A)---5-------------12--------|
B)3----3---5----10----10-12--|


Piano (0:09)
b-c-b-a-b--b-c-b-a-b--b-c-b-a-b-B-b-c-b-a-b-B


Second bass riff:
E)-----------------------------------------|
B)-----------------------------------------|
G)-----------------------------------------|
D)-----------------------------------------|
A)--------12-----------------12------------|
B) 12-12------10-10-10-12-12----10-10------|


Guitar (1:04):
E)---------------------------------------------|
B)---------------------------------------------|
G)---------------------------------------------|
D)---------------------------------------------|
A) 12-12-12^-12-12-12-12^-12-12----------------|
B) --------------------------------------------|

Synth (1:23):
E)-----------------------------------------------------|
B)-----------------------------------------------------|
G)-----------------------------------------------------|
D)-----------------------------------------------------|
A) 14-14-14-14-14-15-15-14-14-15-15-14-14--------------|
B) ----------------------------------------------------|


Guitar (1:37)
E)---------------------------------------------|
B)---------------------------------------------|
G)---------------------------------------------|
D) 9~14~7~12~----------------------------------|
A) --------------------------------------------|
B) --------------------------------------------|

[ Tab from: http://www.guitartabs.cc/tabs/n/nine_inch_nails/only_tab_ver_2.html ]
Prechorus guitar (1:53)
E)-----------------------------------------------------|
B)-----------------------------------------------------|
G)-----------------------------------------------------|
D)-----------------------------------------------------|
A) 2-2-0-2-0-2-0-3-3-0-2-------------------------------|
B)-------------------------0-3-------------------------|

Then go back to the chorus bass.


Post chorus guitar (2:32)
E)-----------------------------------------------------|
B)-----------------------------------------------------|
G)-----------------------------------------------------|
D)----------19~~~~~~~~~~~~~----------------------------|
A) 14~~~~~~~-------------------------------------------|
B)-----------------------------------------------------|

Second chorus guitar 1 (3:31)
E)-----------------------------------------------------------|
B)-----------------------------------------------------------|
G)-----------------------------------------------------------|
D) 16^------------------14^-14^~~~13-------------------------|
A) ------9-9-9-10-10-----------------------------------------|
B)-----------------------------------------------------------|


Second chorus guitar 2 (3:40)
e)-----------------------------------------------------|
B)-----------------------------------------------------|
G) 18^-13-12-13-6-5------------------------------------|
D) ----------------------------------------------------|
A)---------------------12-12-12-12-12-12---------------|
B)-----------------------------------------------------|


Second Chorus guitar 3 (3:49)
E)-----------------------------------------------------|
B)-----------------------------------------------------|
G)-----------------------------------------------------|
D)-----------------------------------------------------|
A) 14-12-14^-12--14-12-14^-12--------------------------|
B)-----------------------------------------------------|