Nine Inch Nails - Only Live Chords & Tabs

 

Only Live Chords & Tabs

Nine Inch Nails Chords & Tabs

Version: 1 Type: Tab

Only Live Tab

This is the live version of the song played on the 05-06 tour.  No one seems to have a 
for this beautifully simple yet well composed song so here goes…
Intro:
Guitar 1
|---------------------------------|4x
|---------------------------------|
|-----7-7-7--7-7-7--9-9-9--4-4-4--|
|-----7-7-7--7-7-7--9-9-9--4-4-4--|
|-----5-5-5--5-5-5--7-7-7--2-2-2--|
|----------0------0------0------0-|
Guitar 2 (enter after guitar 1 plays twice)
|---------------------------------|2x
|---------------------------------|
|-----66666669991111111111--------|
|-----77777778881212121212--------|
|---------------------------------|
|---------------------------------|

|---------------------------------|4x
|---------------------------------|
|-----3/12------------------------|(Trill these notes)
|---------------------------------|
|---------------------------------|
|---------------------------------|
…I’m becoming less defined…

|----5----------------------------|
|---------------------------------|
|---------------------------------|
|---------------------------------|
|---------------------------------|
|---------------------------------|
(bend this note repeatedly for several bars)

|---------------------------------|2x
|---------------------------------|
|----4----9----2----7-------------|
|---------------------------------|
|---------------------------------|
|---------------------------------|

|---------------------------------|4x
|---------------------------------|
|----4h5—2h4--2—-4h5-2h4-2h4------|
|---------------------------------|
|---------------------------------|
|---------------------------------|
…and it worked…
[ Tab from: http://www.guitartabs.cc/tabs/n/nine_inch_nails/only_live_tab.html ]
There is no you…
Guitar 1
|---------------------------------|4x
|---------------------------------|
|-----7-7-7--7-7-7--9-9-9--4-4-4--|
|-----7-7-7--7-7-7--9-9-9--4-4-4--|
|-----5-5-5--5-5-5--7-7-7--2-2-2--|
|----------0------0------0------0-|
Guitar 2 (after guitar 1 plays twice)
|---------------------------------|
|---------------------------------|
|-----66666669991111111111--------|
|-----77777778881212121212--------|
|---------------------------------|
|---------------------------------|
Only...only...
|---------------------------------|4x
|---------------------------------|
|-----3/12------------------------|(Trill these notes)
|---------------------------------|
|---------------------------------|
|---------------------------------|
...well the tiniest little dot...
|---------------------------------|4x
|---------------------------------|
|---4-4--5-5-5--------------------|
|---------------------------------|
|---2-2--3-3-3--------------------|
|--------------0------------------|
Now I’m somewhere...
|---------------------------------|
|---------------------------------|
|----4----9----2----7----4----9---|
|---------------------------------|
|---------------------------------|
|---------------------------------|
Guitar 1
|---------------------------------|4x
|---------------------------------|
|-----7-7-7--7-7-7--9-9-9--4-4-4--|
|-----7-7-7--7-7-7--9-9-9--4-4-4--|
|-----5-5-5--5-5-5--7-7-7--2-2-2--|
|----------0------0------0------0-|
Guitar 2 (enter after guitar 1 plays twice)
|---------------------------------|2x
|---------------------------------|
|-----66666669991111111111--------|
|-----77777778881212121212--------|
|---------------------------------|
|---------------------------------|

Outro:
Guitar 1
|---------------------------------|4x
|---------------------------------|
|-----7-7-7--7-7-7--9-9-9--4-4-4--|
|-----7-7-7--7-7-7--9-9-9--4-4-4--|
|-----5-5-5--5-5-5--7-7-7--2-2-2--|
|----------0------0------0------0-|
Guitar 2 (enter after guitar 1 plays twice)
|---------------------------------|2x
|---------------------------------|
|-----66666669991111111111--------|
|-----77777778881212121212--------|
|---------------------------------|
|---------------------------------|

Some sort of synthetic sound somewhat like this:
|----2--0--5--2-------------------|
|----4--2--7--4-------------------|
|----4--2--7--4-------------------|
|---------------------------------|
|---------------------------------|
|---------------------------------|