Nine Inch Nails - Last Chords & Tabs

 

Last Chords & Tabs

Nine Inch Nails Chords & Tabs

Version: 3 Type: Tab 0 ratings
1 star 2 stars 3 stars 4 stars 5 stars
comments

Last Tab

   
Song: Last
Artist: Nine Inch Nails
Album: Broken
Year: 1992
Tabber: Matt Smith (lovehatetrgdy05@yahoo.com)

Tuning: Drop D (e b G D A D)

Intro/Verse 1

e|----------------------------------------------------|
b|----------------------------------------------------|
G|-7-7 / 5 / 7 / 5 / 7-----7-7 / 5 / 7----------------|
D|-7-7 / 5 / 7 / 5 / 5--6--7-7 / 5 / 7----------------|
A|-5-5 / 3 / 5 / 3 / 5-----5-5 / 3 / 7----------------|
D|--------------------------------------0-0-0-0-0-0-0-|

Pre-Chorus

e|--------------|
b|--------------|
G|-5-6-7--------|
D|-5-6-7--5-6-7-|
A|-3-4-5--5-6-7-|
D|--------5-6-7-|

Solo

e|-----------------------------------------------------|
b|-----------------------------------------------------|
G|-----------------------------------------------------|
D|------------------------3-3p-------------------------|
A|-3-5-5-3-5-3---3-3-5-3-------3-5-5-3-5-3-----3-------|
D|-------------6---------------------------6-5---6-5-3-|

Verse 2
[ Tab from: http://www.guitartabs.cc/tabs/n/nine_inch_nails/last_tab_ver_3.html ]
e|---------------------------------------------|
b|---------------------------------------------|
G|-7-7 / 5 / 7 / 5 / 7-----7-7 / 5 / 7--7-9-10-|
D|-7-7 / 5 / 7 / 5 / 5--6--7-7 / 5 / 7--7-9-10-|
A|-5-5 / 3 / 5 / 3 / 5-----5-5 / 3 / 7---------|
D|---------------------------------------------|

Pre-Chorus

e|--------------|
b|--------------|
G|-5-6-7--------|
D|-5-6-7--5-6-7-|
A|-3-4-5--5-6-7-|
D|--------5-6-7-|

Bridge

e|-------------|
b|-------------|
G|-------------|
D|-3b-5b-6b----|
A|----------3b-|
D|-------------|

Verse 3

e|------------------------------------|
b|------------------------------------|
G|------------------------------------|
D|-----5-----7-----8-----9-----10-----|
A|-----3-----5-----6-----7-----8------|
D|-0-0---0-0---0-0---0-0---0-0--------|

Pre-Chorus

e|--------------|
b|--------------|
G|-5-6-7--------|
D|-5-6-7--5-6-7-|
A|-3-4-5--5-6-7-|
D|--------5-6-7-|

Chorus

e|---------|
b|---------|
G|---------|
D|---------|
A|---------|
D|-0-0-2-2-|

Bridge

e|-------------|
b|-------------|
G|-------------|
D|-3b-5b-6b----|
A|----------3b-|
D|-------------|

Ending

e|-------------------------------------|
b|-------------------------------------|
G|-7-7 / 5 / 7 / 5 / 7-----7-7 / 5 / 7-|
D|-7-7 / 5 / 7 / 5 / 5--6--7-7 / 5 / 7-|
A|-5-5 / 3 / 5 / 3 / 5-----5-5 / 3 / 7-|
D|-------------------------------------|
Comments