Nine Inch Nails - Last Chords & Tabs

 

Last Chords & Tabs

Nine Inch Nails Chords & Tabs

Version: 2 Type: Tab 0 ratings
1 star 2 stars 3 stars 4 stars 5 stars
comments

Last Tab

   
Last by Nine Inch Nails, from the Broken Album  tabbed by Justin Schwarz

standard tuning E A D G B E

P.M.=palm mute
p = pull off

  VERSE 1
e|----------------------------------------------------|
B|----------------------------------------------------|
G|----------------8-8---------------------------------|
D|--7-7--5/7-5/7--6-6--7-7--5/7--7-7-7-7-7-7-7-7-7----|
A|--5-5--3/5-3/5-------5-5--3/5--5-5-5-5-5-5-5-5-5----|
E|----------------------------------------------------|
                                 P.M.-----------------|
 CHORUS
e|-------------------|
B|-------------------|
G|-------------------|
D|--5-6-7------------|
A|--3-5-5--5-5-6-7---|
E|---------3-3-4-5---|
[ Tab from: http://www.guitartabs.cc/tabs/n/nine_inch_nails/last_tab_ver_2.html ]
small solo
e|------------------------------------------------------|
B|------------------------------------------------------|
G|------------------------------------------------------|   (x2)
D|-------------------------3-3--------------------------|
A|--3-5-5-3--5p3---3-5-5--------3-5-5-3--5p3---3--------|
E|---------------5-------5-------------------5---5-4-3--|

repeat verse 1
                          /\/ | \/\
chorus

 Verse 2
e|--------------------------------|
B|--------------------------------|
G|--------------------------------|
D|----5----6----7----8----9/10----|
A|----3----4----5----6----7/8-----|
E|--0----0----0----0----0---------|

Repeat verse 1 without palm mute part


should be correct, if not email me at shroomhead420@aol.com
Please rate this tab
Comments