Nine Inch Nails - Into The Void Chords & Tabs

 

Into The Void Chords & Tabs

Nine Inch Nails Chords & Tabs

Version: 1 Type: Bass Tab 0 ratings
1 star 2 stars 3 stars 4 stars 5 stars
comments

Into The Void Bass Tab

Nine Inch Nails
Into The Void

Tabbed by Logic XIII

LogicXIII@hammer665.iwarp.com
=============================

For the 4-String

G|-3-4-5---------3-4-5-------------
D|---------------------------------
A|--------3-6--3-------------------
E|---------------------------------

For the 5/6-String
[ Tab from: http://www.guitartabs.cc/tabs/n/nine_inch_nails/into_the_void_btab.html ]
G|---------------------------------
D|---------------------------------
A|-1-2-3--------1-2-3--------------
E|---------------------------------
B|-------1-4--1--------------------

This is repeated throughout the song. Use the upper octave version for the intro, 
and the lower octave version for the rest if you have a 5/6-string.

Comments