Nine Inch Nails - Hurt Chords & Tabs

 

Hurt Chords & Tabs

Nine Inch Nails Chords & Tabs

Version: 4 Type: Tab 0 ratings
1 star 2 stars 3 stars 4 stars 5 stars
comments

Hurt Tab

   
-------------------------------------------------------------------------------
			     HURT- NINE INCH NAILS
-------------------------------------------------------------------------------
Tabbed by:BOB
Email:ROB@NAIVEROCKS.COM

 THIS IS ARRANGED TO BE PLAYED BY ONE GUITAR. SOUNDS GOOD ON AN ACOUSTIC!
[ Tab from: http://www.guitartabs.cc/tabs/n/nine_inch_nails/hurt_tab_ver_4.html ]
Tuning:LOW-D A D G A E-HIGH
 (VERSE RIFF REPEAT SEVERAL TIMES)
              I  HURT MYSELF TODAY          TO SEE IF I STILL FEEL
e|-----------------------------10---------------------------------|    
A|---------------------7------------------------------7-----------|   
G|-----10------------7-------7--------10------------7-------7-----|   
D|---------12------7-------9--------------12------7-------9---9---|   
A|---9-----------5-------7----------9-----------5-------7---------|   
D|-9------------------------------9-------------------------------|   
 (PRE-CHORUS RIFF)                                                    
                   WHAT HAVE I BECOME             MY SWEETEST FRIEND  
e|-0---0---0---0---0---0---0---0---0---0---0---0---0---0---0---0--|
A|-0---0---0---0---0---0---0---0---0---0---0---0---0---0---0---0--|
G|-X---X---X---X---X---X---X---X---X---X---X---X---X---X---X---X--|
D|-7---7---7---7---9---9---9---9---7---7---7---7---7---7---7---7--|
A|-X---X---X---X---X---X---X---X---X---X---X---X---5---5---5---5--|
D|-7---7---7---7---9---9---9---9---5---5---5---5---0---0---0---0--|
 (CHORUS RIFF)
                   YOU COULD HAVE IT ALL          MY EMPIRE OF DIRT
e|-0---0---0---0---0---0---0---0---0---0---0---0---0---0---0---0---|
A|-0---0---0---0---0---0---0---0---0---0---0---0---0---0---0---0---|
G|-9-9-9-9-9-9-9-9-11--11--11--11--7-7-7-7-7-7-7-7-9-9-9-9-9-9-9-9-|
D|-7-7-7-7-7-7-7-7-9-9-9-9-9-9-9-9-7-7-7-7-7-7-7-7-7-7-7-7-7-7-7-7-|
A|-7-7-7-7-7-7-7-7-9-9-9-9-9-9-9-9-5-5-5-5-5-5-5-5-7-7-7-7-7-7-7-7-|
D|-7-7-7-7-7-7-7-7-9-9-9-9-9-9-9-9-5-5-5-5-5-5-5-5-7-7-7-7-7-7-7-7-|
  (ENDING CHORDS)
e|-----------------------------------------------------------------|
A|-----------------------------------------------------------------|
G|-9----7----11----------------------------------------------------|
D|-7----0----9-----------------------------------------------------|
A|-7----0----9-----------------------------------------------------|
D|-7----0----9-----------------------------------------------------|
  THE STRUCTURE IS
  VERSE,
  PRE-CHORUS,
  CHORUS,
  VERSE,
  PRE-CHORUS,
  CHORUS,
  END CHORDS.

| /  slide up
| \  slide down
| h  hammer-on
| p  pull-off
| ~  vibrato
| +  harmonic
| x  Mute note
===============================================================================
Comments