Nine Inch Nails - Hurt Chords & Tabs

 

Hurt Chords & Tabs

Nine Inch Nails Chords & Tabs

Version: 2 Type: Tab 0 ratings
1 star 2 stars 3 stars 4 stars 5 stars
comments

Hurt Tab

#----------------------------------PLEASE NOTE--------------------------------#
#This file is the author's own work and represents their interpretation of the#
#song. You may only use this file for private study, scholarship, or research.#
#-----------------------------------------------------------------------------#

Author/Artist: Nine Inch Nails
Title: Hurt
Album: The Downward Spiral
Transcribed by: Chris Arnold
Email: webmaster@cagtp.com

This is a very easy song. 
[ Tab from: http://www.guitartabs.cc/tabs/n/nine_inch_nails/hurt_tab_ver_2.html ]
Intro/Main Riff:
E------------------------10--|
B-----------------5----------|
G-----10--------7------9-----|
D--------9----7-------9------|
A---9-------5-------7--------|
E-7--------------------------|
                                                                              
Chords on Chorus:
E-0-|---|-3-|-2-|
B-2-|---|-3-|-3-|
G-2-|-4-|-0-|-2-|
D-2-|-4-|-0-|-0-|
A-0-|-2-|-0-|---|
E---|---|-3-|---|
                                                                              
In Background:
E-12-12-12-12-12-9-10----10-10-10-10-10-9-7-9----9-9-9-9-9-7-5-7----5-5-5-5-7-9-10--|
B-----------------------------------------------------------------------------------|
G-----------------------------------------------------------------------------------|
D-----------------------------------------------------------------------------------|
A-----------------------------------------------------------------------------------|
E-----------------------------------------------------------------------------------|
                                                                              
Ending Strum (VERY LOUD):
E--------|
B--------|
G-5------|
D-5-5-2--|
A-3-5-2--|
E---3-0--|

That's it.






Comments