Nine Inch Nails - Hurt Chords & Tabs

 

Hurt Chords & Tabs

Nine Inch Nails Chords & Tabs

Version: 3 Type: Bass Tab 0 ratings
1 star 2 stars 3 stars 4 stars 5 stars
comments

Hurt Bass Tab

Hurt - Nine Inch Nails

By: Jon Craven (i_apathy@hotmail.com)
For questions, comments, feedback, an outline of the timing, write the above
address.

Note:
  -Played with a pick.

(4/4)(80 bpm)
Standard tuning

r - eighth rest
> - accent
* - note held for an eighth beat
+ - note held for a sixteenth beat

Pre-chorus: (x2)(1:10)
|----------------|----------------|----------------|----------------|
|----------------|----------------|----------------|----------------|
|0---0---0---0---|2---2---2---2---|----------------|5---5---5---5---|
|----------------|----------------|3---3---3---3---|----------------|

|----------------|----------------|----------------|----------------|
|----------------|----------------|----------------|------------7---|
|0---0---0---0---|2---2---2---2---|----------------|5---5---5---5---|
|----------------|----------------|3---3---3---3---|----------------|

Chorus 1: (1:58)
|----------------|----------------|----------------|----------------|
|----------------|----------------|----------------|----------------|
|0-0-0-0-0-0-0-0-|2-2-2-2-2-2-2-2-|----------------|0-0-0-0-0-0-0-0-|
|----------------|----------------|3-3-3-3-3-3-3-3-|----------------|
[ Tab from: http://www.guitartabs.cc/tabs/n/nine_inch_nails/hurt_btab_ver_3.html ]
|----------------|----------------|----------------|----------------|
|----------------|----------------|----------------|---------->->---|
|0-0-0-0-0-0-0-0-|2-2-2-2-2-2-2-2-|----------------|0-0-0-0-0-0-0-r-|
|----------------|----------------|3-3-3-3-3-3-3-3-|----------------|

Rest for twenty measures
Pre-chorus

Chorus 2: (3:46)
|----------------|----------------|----------------|----------------|
|----------------|----------------|----------------|----------------|
|0-0-0-0-0-0-0-0-|2-2-2-2-2-2-2-2-|----------------|0-0-0-0-0-0-0-0-|
|----------------|----------------|3-3-3-3-3-3-3-3-|----------------|

|----------------|----------------|----------------|----------------|
|----------------|----------------|----------------|---------->->---|
|0-0-0-0-0-0-0-0-|2-2-2-2-2-2-2-2-|----------------|0-0-0-0-0-0-0-0-|
|----------------|----------------|3-3-3-3-3-3-3-3-|----------------|

Outro: (4:10)
|----------------|----------------|----------------|----------------|
|----------------|----------------|----------------|----------------|
|0-0-0-0-0-0-0-0-|2-2-2-2-2-2-2-2-|----------------|0-0-0-0-0-0-0-0-|
|----------------|----------------|3-3-3-3-3-3-3-3-|----------------|

|----------------|----------------|----------------|--------------|
|----------------|----------------|----------------|--------------|
|0-0-0-0-0-0-0-0-|2-2-2-2-2-2-2-2-|----------------|0-*-*-+-------|
|----------------|----------------|3-3-3-3-3-3-3-3-|-------1*-*-*-|
(held until 5:52)
|----------------|
|----------------|
|+2*-*-*-*-*-*-*-|
|----------------|

Rest till end
Comments