Nine Inch Nails - Hurt Chords & Tabs

 

Hurt Chords & Tabs

Nine Inch Nails Chords & Tabs

Version: 2 Type: Bass Tab 0 ratings
1 star 2 stars 3 stars 4 stars 5 stars
comments

Hurt Bass Tab

"Hurt" by Nine Inch Nails
From "The Downward Spiral"
Tabbed by: Damian (damian.pamminger@thedoghousemail.com)

Prechorus:
G:---------------------------------------------------------------|
D:---------------------------------------------------------------|
A:-------------------------------------------------5---5---5---5-|
E:-5---5---5---5---7---7---7---7---3---3---3---3-----------------|
[ Tab from: http://www.guitartabs.cc/tabs/n/nine_inch_nails/hurt_btab_ver_2.html ]
Chorus:
G:--------------------------------------------------------------------|
D:--------------------------------------------------------------------|
A:--------------------------------------------------------------------|
E:-5-5-5-5-5-5-5-5--7-7-7-7-7-7-7-7--3-3-3-3-3-3-3-3--5-5-5-5-5-5-5-5-|

End:
G:-----------------|
D:-----------------|
A:---------------2-|
E:-5----1----------|
                 *hold this note
Comments