Nine Inch Nails - Hand That Feeds Chords & Tabs

 

Hand That Feeds Chords & Tabs

Nine Inch Nails Chords & Tabs

Version: 5 Type: Tab 0 ratings
1 star 2 stars 3 stars 4 stars 5 stars
comments

Hand That Feeds Tab

                             Nine Inch Nails
                           The Hand That Feeds
                              [With_Teeth]
Drop D (this is how i play it) it can be played in standard too

Base Riff
|----------------|
|----------------|
|----------------|
|-7-7-5-7--10--5-|

Guitar Chorus
|-------------------------|-------------------------|
|-13-13-13-13-13-13-13-13-|-13-13-13-13-12-12-12-12-|
|--x--x--x--x--x--x--x--x-|--x--x--x--x--x--x--x--x-|
|-10-10-10-10-10-10-10-10-|-10-10-10-10--9--9--9--9-|
|-------------------------|-------------------------|
|-------------------------|-------------------------|

|-------------------------|-------------------------|
|-10-10-10-10-10-10-10-10-|--8--8--8--8--8--8--8--8-|
|--x--x--x--x--x--x--x--x-|--x--x--x--x--x--x--x--x-|
|--7--7--7--7--7--7--7--7-|--5--5--5--5--5--5--5--5-|
|-------------------------|-------------------------|
|-------------------------|-------------------------|

|-------------------------|-------------------------|
|-14-14-14-14-14-14-14-14-|-14-14-14-14-14-14-14-13-|
|--x--x--x--x--x--x--x--x-|--x--x--x--x--x--x--x--x-|
|-11-11-11-11-11-11-11-11-|-11-11-11-11-11-11-11-10-|
|-------------------------|-------------------------|
|-------------------------|-------------------------|
|                         |                         |
|-------------------------|-------------------------|
|-------------------------|-------------------------|
|-------------------------|-------------------------|
|--7--7--5--7-----10----5-|--7--7--5--7-----10----5-|
|--7--7--5--7-----10----5-|--7--7--5--7-----10----5-|
|--7--7--5--7-----10----5-|--7--7--5--7-----10----5-|

|-------------------------|-------------------------|
|-14-14-14-14-14-14-14-14-|-14-14-14-14-14-14-14-14-|
|--x--x--x--x--x--x--x--x-|--x--x--x--x--x--x--x--x-|
|-11-11-11-11-11-11-11-11-|-11-11-11-11-11-11-11-11-|
|-------------------------|-------------------------|
|-------------------------|-------------------------|
|                         |                         |
|-------------------------|-------------------------|
|-------------------------|-------------------------|
|-------------------------|-------------------------|
|--7--7--5--7-----10----5-|--7--7--5--7-----10------|
|--7--7--5--7-----10----5-|--7--7--5--7-----10------|
|--7--7--5--7-----10----5-|--7--7--5--7-----10------|

Guitar Verse
|-------------------------|
|-------------------------|
|-------------------------|
|--7--7--5--7-----10----5-|
|--7--7--5--7-----10----5-|
|--7--7--5--7-----10----5-|

Synth Interlude* Part 1
|-----------------------|---------------------|----------------------|
|o----------------------|---------------------|----------------------|
|-----------------------|---------------------|----------------------|
|-----------------------|---------------------|----------------------|
|o-12-0-12-0-12-10-0-10-|-0-15-0-15-0-17-0-10-|-12-0-12-0-12-15-0-15-|
|-----------------------|---------------------|----------------------|
                       x3
|-----------------------|----------------------|---------------------|
|----------------------o|----------------------|---------------------|
|-----------------------|----------------------|---------------------|
|-----------------------|----------------------|---------------------|
|-0-17-0-17-0-13-12-13-o|-12-0-12-0-12-10-0-10-|-0-15-0-15-0-17-0-10-|
|-----------------------|----------------------|---------------------|

|----------------------|----------------------|
|----------------------|----------------------|
|----------------------|----------------------|
|----------------------|----------------------|
|-12-0-12-0-12-15-0-15-|-0-13-0-13-0-13-12-12-|
|----------------------|----------------------|
[ Tab from: http://www.guitartabs.cc/tabs/n/nine_inch_nails/hand_that_feeds_tab_ver_5.html ]
Synth Interlude** Part 2 
|-------------|------------------|------------------|------------------|
|-------------|------------------|------------------|------------------|
|-14-14-12-12-|-(12)-17-17-19-12-|-(12)-14-14-------|------------------|
|-------------|------------------|------------10-10-|-(10)-12-12-------|
|-------------|------------------|------------------|------------10-10-|
|-------------|------------------|------------------|------------------|

|------------------|------------------|------------------|------------------|
|------------------|------------------|------------------|------------------|
|------14-14-12-12-|-(12)-17-17-19-12-|-(12)-14-14-------|------------------|
|------------------|------------------|------------10-10-|-(10)-12-12-------|
|-(10)-------------|------------------|------------------|------------10-10-|
|------------------|------------------|------------------|------------------|

|------------------|------------------|------------------|------------------|
|------------------|------------------|------------------|------------------|
|------14-14-12-12-|-(12)-17-17-19-12-|-(12)-14-14-------|------------------|
|------------------|------------------|------------10-10-|-(10)-12-12-------|
|-(10)-------------|------------------|------------------|------------10-10-|
|------------------|------------------|------------------|------------------|

Bridge                                               x3
|--------------------------|--------------------------|
|o-------------------------|-------------------------o|
|--------------------------|--------------------------|
|---7--7--5--7-----10----5-|--7--7--5--7-----10----5--|
|o--7--7--5--7-----10----5-|--7--7--5--7-----10----5-o|
|---7--7--5--7-----10----5-|--7--7--5--7-----10----5--|

|-------------------------|-------------------------|
|-------------------------|-------------------------|
|-------------------------|-------------------------|
|--7--7--5--7-----10----5-|--7--7--5--7-----10------|
|--7--7--5--7-----10----5-|--7--7--5--7-----10------|
|--7--7--5--7-----10----5-|--7--7--5--7-----10------|

Outro Part 1
|--------------------------|-------------------------|
|o-------------------------|-------------------------|
|--------------------------|-------------------------|
|---7--7--5--7-----10----5-|--7--7--5--7-----10----5-|
|o--7--7--5--7-----10----5-|--7--7--5--7-----10----5-|
|---7--7--5--7-----10----5-|--7--7--5--7-----10----5-|

|-------------------------|--------------------------|
|-------------------------|-------------------------o|
|-------------------------|--------------------------|
|--7--7--5--7-----10----5-|--7--7--5--7-----10----5--|
|--7--7--5--7-----10----5-|--7--7--5--7-----10----5-o|
|--7--7--5--7-----10----5-|--7--7--5--7-----10----5--|

Outro*** Part 2
|------------------|------------------|------------------|------------------|
|------------------|------------------|------------------|------------------|
|------------------|------------------|------------------|------------------|
|-7---5-7---10---5-|-7---5-7---10---5-|-7---5-7---10---5-|-7---5-7---10---5-|
|---0-----0----0---|---0-----0----0---|---0-----0----0---|---0-----0----0---|
|------------------|------------------|------------------|------------------|

|------------------|------------------|------------------|--------------|
|------------------|------------------|------------------|--------------|
|------------------|------------------|------------------|--------------|
|-7---5-7---10---5-|-7---5-7---10---5-|-7---5-7---10---5-|-7---5-7---10-|
|---0-----0----0---|---0-----0----0---|---0-----0----0---|---0-----0----|
|------------------|------------------|------------------|--------------|

* To make this effect slide up to every note greater then 0
** Repeat chorus under this
*** Repeat Main Riff (a.k.a. Verse Riff) under this
Comments