Nine Inch Nails - Hand That Feeds Chords & Tabs

 

Hand That Feeds Chords & Tabs

Nine Inch Nails Chords & Tabs

Version: 4 Type: Tab 0 ratings
1 star 2 stars 3 stars 4 stars 5 stars
comments

Hand That Feeds Tab

Okay, well I finally got off of my lazy arse and decided to tab this song out. But this
is kind of a 'LOWER/DEEPER' version. This is all that i could make out with. If you have
any comments / critiques about it, AIM me on "ON OUR GUILT". If you have any trouble on
how it's supposed to be played, I'll be more than glad to play it for you on AIM with my
mic.

Tuning is in DROP D. 

*= PALM MUTE

Love,
the coolest thirteen year old on earth.
----------



|-------------------------------------------|
|-------------------------------------------|
|-------------------------------------------|
|-------------------------------------------|
|-------------------------------------------|
|--0--2-2--0--2--5--------------------------| x8 [intro, fading in]
   *  * *  *  *  *

|-------------------------------------------|
|-------------------------------------------|
|-------------------------------------------|
|-------------------------------------------|
|-------------------------------------------|
|--0--2-2--0--2--5--------------------------| x8 

|-------------------------------------------|
|-------------------------------------------|
|-------------------------------------------|
|-------------------------------------------|
|-------------------------------------------|
|--0--2-2--0--2--5--------------------------| x8


|----------------------------------------------------------------|
|----------------------------------------------------------------|
|----------------------------------------------------------------|
|----------------------------------------------------------------|
|----151515151515151515-1414141414--12121212121212--1010101010---| 
|----------------------------------------------------------------| x1
[ Tab from: http://www.guitartabs.cc/tabs/n/nine_inch_nails/hand_that_feeds_tab_ver_4.html ]
|-----------------------------|
|-----------------------------|
|-----------------------------|
|-----------------------------|
|1616161616161616161616161616-|
|-----------------------------| x1

|----------------------------------------------------------------|
|----------------------------------------------------------------|
|----------------------------------------------------------------|
|----------------------------------------------------------------|
|----151515151515151515-1414141414--12121212121212--1010101010---| 
|----------------------------------------------------------------| 

(those are 15's , 14's, 12's, and 10's. this is the little temelo that you can hear in the song) 

|-------------------------------------------|
|-------------------------------------------|
|-------------------------------------------|
|-------------------------------------------|
|--5-5--3-3--8-8--10-10---------------------|
|-------------------------------------------| [doesnt sound exact..] x i dont know how many times though

|-------------------------------------|
|-------------------------------------|
|-------------------------------------|
|--12-12-10-10-15-15-17-17------------|
|--12-12-10-10-15-15-17-17------------|
|--12-12-10-10-15-15-17-17------------| x2 [doesnt sound exact either]

|-------------------------------------------|
|-------------------------------------------|
|-------------------------------------------|
|-------------------------------------------|
|-------------------------------------------|
|--0--2-2--0--2--5--------------------------| x8 
   *  * *  *  *  *

|-------------------------------------------|
|-------------------------------------------|
|-------------------------------------------|
|--0--2-2--0--2--5--------------------------|
|--0--2-2--0--2--5--------------------------|
|--0--2-2--0--2--5--------------------------| x 16
Comments