Nine Inch Nails - Hand That Feeds Chords & Tabs

 

Hand That Feeds Chords & Tabs

Nine Inch Nails Chords & Tabs

Version: 3 Type: Tab 0 ratings
1 star 2 stars 3 stars 4 stars 5 stars
comments

Hand That Feeds Tab

   
Tabbed by:Armando Sanchez
Email:

Tuning: Drop D
Guitar (chorus)x2
e|---------------------------------------------------------------------------|
B|---------------------------------------------------------------------------|
G|---17----16----14----12----18--\---14--/-18--------------------------------|
D|----x-----x-----x-----x-----x----------------------------------------------|
A|---15----14----12----10----16--\---12--/-16--------------------------------|
E|--(x12)--(x4)--(x8)--(x8)--(x15)--------(x15)------------------------------|
(Verse 2)
e|---------------------------------------------------------------------------|
B|---------------------------------------------------------------------------|
G|---------------------------------------------------------------------------|
D|--5--7--7--5--7--10--------------------------------------------------------|
A|--5--7--7--5--7--10--------------------------------------------------------|
E|--5--7--7--5--7--10--------------------------------------------------------|

(chorus)

(Keyboard/Synth solo tabbed for guitar) This isnt perfect but its building blocks
so work around it if you want it to sound like the song.
e|---------------------------------------------------------------------------|
B|---------------------------------------------------------------------------|
G|---------------------------------------------------------------------------|
D|---5/7--5/7---5/7--5/7/5---7/10/7/10--7/12/7/5-----------------------------|
A|---------------------------------------------------------------------------|
E|---------------------------------------------------------------------------|
[ Tab from: http://www.guitartabs.cc/tabs/n/nine_inch_nails/hand_that_feeds_tab_ver_3.html ]
e|---------------------------------------------------------------------------|
B|---------------------------------------------------------------------------|
G|---------------------------------------------------------------------------|
D|---5/7--5/7---5/7--5/7\5---7/10/7/10--/7--5/7/5----------------------------|
A|---------------------------------------------------------------------------|
E|---------------------------------------------------------------------------|
(solo part 2)
e|---------------------------------------------------------------------------|
B|---------------------------------------------------------------------------|
G|-12/14--12/14--12--12--12/17--12/17--12/19--12-----------------------------|
D|---------------------------------------------------------------------------|
A|---------------------------------------------------------------------------|
E|---------------------------------------------------------------------------|

e|---------------------------------------------------------------------------|
B|---------------------------------------------------------------------------|
G|-12/14--12/14--5--5--5/7--5/7--0--0----------------------------------------|
D|---------------------------------------------------------------------------|
A|---------------------------------------------------------------------------|
E|---------------------------------------------------------------------------|
(outro)2:45
e|---------------------------------------------------------------------------|
B|---------------------------------------------------------------------------|
G|---------------------------------------------------------------------------|
D|--5--7--7--5--7--10--------------------------------------------------------|
A|--5--7--7--5--7--10--------------------------------------------------------|
E|--5--7--7--5--7--10--------------------------------------------------------|
(outro) guitar 2 (optional)3:15
e|---------------------------------------------------------------------------|
B|---------------------------------------------------------------------------|
G|---------------------------------------------------------------------------|
D|---5--/7--7--\5--/7--/10--\7--\5----(end at 7 on last time)----------------|
A|---------------------------------------------------------------------------|
E|---------------------------------------------------------------------------|

This is my first tab and as accurate as i could get it, rate please.

| /  slide up
| \  slide down
| h  hammer-on
| p  pull-off
| ~  vibrato
| +  harmonic
| x  Mute note
Comments