Nine Inch Nails - Hand That Feeds Chords & Tabs

 

Hand That Feeds Chords & Tabs

Nine Inch Nails Chords & Tabs

Version: 2 Type: Tab 0 ratings
1 star 2 stars 3 stars 4 stars 5 stars
comments

Hand That Feeds Tab

Main Riff

|-----------------|
|-----------------|
|-----------------|
|-----------------|
|-5-7-7-5-7-10----|
|-3-5-5-3-5--8----|

Chorus

Play this the first time around
[ Tab from: http://www.guitartabs.cc/tabs/n/nine_inch_nails/hand_that_feeds_tab_ver_2.html ]
|-----------------------------------------------------------------------------------------------|
|-----------------------------------------------------------------------------------------------|
|-----------------------------------------------------------------------------------------------|
|-10-10-10-10-10-10-10-10-10-10-10-10-9-9-9-9---------------------------------------------------|
|---------------------------------------------12-12-12-12-12-12-12-12-10-10-10-10-10-10-10-10---|
|-----------------------------------------------------------------------------------------------|

Play this the second time round

|----------------------------------|
|----------------------------------|
|----------------------------------|
|-11-11-11-11-11-11-11-11-11-11----|
|----------------------------------|
|----------------------------------|
Comments