Nine Inch Nails - Great Belowbeyond Chords & Tabs

 

Great Belowbeyond Chords & Tabs

Nine Inch Nails Chords & Tabs

Version: 1 Type: Tab 0 ratings
1 star 2 stars 3 stars 4 stars 5 stars
comments

Great Belowbeyond Tab

   
"The Fragile" Album
Nine Inch Nails


Notation
b   	bend
r       release
>   	slide
~~	vibrato
h   	hammer on
p	pull off
PM	palm mute
x	muted or scraped note
H  	harmonic
(6)	ghost note
///	tremolo pick

I. THE GREAT BELOW

Intro (Guitar 1 with effects)
e-------------|
B-------------|					
G-------------|			
D--7-7--8--5--|
A-------------|
E--5-5--6--3--|

Intro (Guitar 2)
D---11--12--14-----11--12--14--14b15r14---|

Verse (Guitar 1 with acoustic effect)
e---0---0---0---3---|				
B---2---2---3---3---|				
G---2---2---0---0---|		
D---2---2---3---0---|				
A---0---0---1---X---|				
E---------------3---|				
[ Tab from: http://www.guitartabs.cc/tabs/n/nine_inch_nails/great_belowbeyond_tab.html ]
Chorus 1 (Guitar 1)
e----------------------------
B---5--3--2---5--3--3--------
G---2--2--2---3--3--3--------
D---2--2--2---3--3--3--------
A---0--0--0---1--1--X--------
E-------------------3--------

Chorus 2 (Guitar 1)
   Dm   C        Gm   F

Chorus 2 (Guitar 2)
e----------------------------
B--5-3-----------5-3---------
G-------5-3-2---------5-3-2--
D----------------------------
A----------------------------
E----------------------------

End melodic guitar
e-------------------------------0----------------------------
B---10>8--------5----10>8-------5-------10>8---------6-------
G------------------------------------------------------------
D---------7>5--------------7>5------------------7>5----------
A------------------------------------------------------------
E------------------------------------------------------------

Pluck over this
D--11-12-14---11-12-14-14b15r14--

Original tab at www.bandtabs.com
 -staind_d@hotmail.com
Comments