Nine Inch Nails - Frail Chords & Tabs

 

Frail Chords & Tabs

Nine Inch Nails Chords & Tabs

Version: 1 Type: Tab 0 ratings
1 star 2 stars 3 stars 4 stars 5 stars
comments

Frail Tab

   
Nine Inch Nails: THE FRAGILE 
Tabbed by Alex Robertson (mog@thefreeinternet.co.uk)

Notation

b   	bend
r       release
>   	slide
~~	vibrato
h   	hammer on
p	pull off
PM	palm mute
x	muted or scraped note
H  	harmonic
(6)	ghost note
///	tremolo pick

THE FRAIL

Dropped-D tuning
[ Tab from: http://www.guitartabs.cc/tabs/n/nine_inch_nails/frail_tab.html ]
e--3---------------------3--10--1-----------0--1------------------3--------------
B-----1----------------------8----1--0------------1--0---------------1-----------
G--------3--0----------------0-------0---------------0------------------3--0-----
D--------------------------------------------------------------------------------
A----------------------------6---------------------------------------------------
D--0--1--3--5------------0------3----5------0--1--3--5------------0--1--3--5-----


e--0--1------------------1-----3------------3--10--1--------------0--1-----------
B---------------------------1-------------------8----1--0---------------1--0-----
G--------3--5--7------------------7-------------0-------0------------------0-----
D--------------------------------------------------------------------------------
A-----------------------------------------------6--------------------------------
D--0--1--3-----5---------0--1--3--5---------0------3----5---------0--1--3--5-----


Last section

Same bassline  D--0-1-3-5--  
over voice wavering between  e--6-5

original tab from www.bandtabs.com
 -staind_d@hotmail.com
Comments