Nine Inch Nails - Eraser Chords & Tabs

 

Eraser Chords & Tabs

Nine Inch Nails Chords & Tabs

Version: 3 Type: Tab 0 ratings
1 star 2 stars 3 stars 4 stars 5 stars
comments

Eraser Tab

   
Nine Inch Nails - Eraser
Album - The Downward Spiral
Year - 1994
Tabber - Matt Smith (lovehatetrgdy05@yahoo.com)

Tuning: Standard (e, b, G, D, A, e)

Intro (Repeat)

Use occasional bending on the G string. Make it random, will sound a lot better. 

e|---------------14--------------14-|
b|-10-10-10-10-10--10-10-10-10-10---|
G|----------------------------------|
D|----------------------------------|
A|----------------------------------|
E|----------------------------------|
[ Tab from: http://www.guitartabs.cc/tabs/n/nine_inch_nails/eraser_tab_ver_3.html ]
e|---------------13--------------13-|
b|-12-12-12-12-12--12-12-12-12-12---|
G|----------------------------------|
D|----------------------------------|
A|----------------------------------|
E|----------------------------------|

Chorus

e|---------|
b|---------|
G|-1-3-4-6-|
D|---------|
A|---------|
E|---------|

For each word Trent sings, switch between this.

Need(1) You(3), Dream(4) You(4)

Continue this until he finishes, that part of the chorus with "Break you."


Chorus Pt.2

e|-------------------------|
b|-------------------------|
G|-------------------------|
D|-3b-3b-3-3-3-3-0-3-3-3-0-|
A|-3b-3b-3-3-3-3-0-3-3-3-0-|
e|-1b-3b-1-1-1-1-0-1-1-1-0-|

And that's it. A great song. Hopefully I've done it justice.
Comments