Nine Inch Nails - Dead Souls Chords & Tabs

 

Dead Souls Chords & Tabs

Nine Inch Nails Chords & Tabs

Version: 4 Type: Tab 0 ratings
1 star 2 stars 3 stars 4 stars 5 stars
comments

Dead Souls Tab

   
-------------------------------------------------------------------------------
			     Dead Souls - Nine Inch Nails
-------------------------------------------------------------------------------
Tabbed by: Eeasy
Email: da1smegined@hotmail.com	

Tuning: Standard

first verse its this ambiant riff is played

repeat this however many times    then play this once
e|------------------------------|------------------------|
B|------------------------------|------------------------|
G|------------------------------|------------------------|
D|------------------------------|------------------------|
A|--------------1-3-------------|--------------1-3---3---|
E|-3-3-3-3-3-3------1-1-1-1-1-1-|-3-3-3-3-3-3------1---1-|

e|---------------------|---------------------|
B|---------------------|---------------------|
G|---------------------|---------------------|
D|-----------5---------|---------5-5---------|
A|---8---8-------8---8-|---8---8-------8---8-|
E|-6---6---6---6---6---|-6---6-------6---6---|

x3
e|------------------------------|
B|------------------------------|
G|------------------------------|
D|-------------------9/10-------|
A|-13-13-13-13-13-13------------|
E|------------------------13-13-|

e|---------------------|
B|---------------------|
G|---------------------|
D|-----------5---------|
A|---8---8-------8---8-|
E|-6---6---6---6---6---|

[ Tab from: http://www.guitartabs.cc/tabs/n/nine_inch_nails/dead_souls_tab_ver_4.html ]
chorus
x3
e|-----------|-----|
B|-6-4-------|-----|
G|-5-3-3-5-5-|-3-5-|
D|-3-1-3-5-5-|-3-5-|
A|-----1-3-3-|-1-3-|
E|-----------|-----|


verse 2


repeat this however many times
e|------------------------------|
B|------------------------------|
G|------------------------------|
D|------------------------------|
A|--------------1-3-------------|
E|-3-3-3-3-3-3------1-1-1-1-1-1-|
                  ^
get louder before chorus


chorus again as before


verse 3
play throughout
e|---------|
B|---------|
G|-3-3-5-5-|
D|-3-3-5-5-|
A|-1-1-3-3-|
E|---------|
start loud then get quit after about 4 bars then stay quiet


chorus again as before


the is the bar were the bass plays

E|-3-3-3-|
you can play this if you want but i think that leavng the bass on its own sounds better


chorus twice through


verse 4 is exactly the same as verse 3 untill the beat drops

now iv heard a few versions of this and they all go pretty much something like this
e|---------------------|
B|---------------------|
G|---------------------|
D|-------5---5---3---3-|
A|-------5---5---3---3-|
E|-3-3-3-3-3-3-3-1-1-1-|
if not im sure u can figure it out just play notes/chords around that area


| /  slide up
| \  slide down
| h  hammer-on
| p  pull-off
| ~  vibrato
| +  harmonic
| x  Mute note
===============================================================================
Comments