Nine Inch Nails - Day The World Went Away Chords & Tabs

 

Day The World Went Away Chords & Tabs

Nine Inch Nails Chords & Tabs

Version: 1 Type: Tab 0 ratings
1 star 2 stars 3 stars 4 stars 5 stars
comments

Day The World Went Away Tab

Nine Inch Nails
Fragile
The Day The World Went Away
Transcribed by --====--
ss4_aaron@yahoo.com

[main riff]

distorted low end/mids

guitar1

e|---------------------------------------------------------------------|
B|---------------------------------------------------------------------|
G|-6-6-6-6-6-6-6--4-4-4-4-4-4-4----------------------------------------|
D|-6-6-6-6-6-6-6--4-4-4-4-4-4-4---2-2-2-2-2-2-2--4-4-4-4-4-4-4---------|
A|-4-4-4-4-4-4-4--2-2-2-2-2-2-2---2-2-2-2-2-2-2--4-4-4-4-4-4-4--------4|
D|--------------------------------2-2-2-2-2-2-2--4-4-4-4-4-4-4--4--6---|

play 14x
then


[lead during main riff]

this riff comes in during the guitar1's 8th time through the main riff
[ Tab from: http://www.guitartabs.cc/tabs/n/nine_inch_nails/day_the_world_went_away_tab.html ]
e|---------------------------------------------------------------------|
B|---------------------------------------------------------------------|
G|---------------------------------------------------------------------|
D|-15--12--14--10--15--12--14--10--15--12--14--10----------------------|
A|---------------------------------------------------------------------|
E|---------------------------------------------------------------------|

play 4x


[mid riff]

e|---------------------------------------------------------------------|
B|---------------------------------------------------------------------|
G|-9-2-8-4-------------------------------------------------------------|
D|-9-2-8-4-------------------------------------------------------------|
A|-7-4-6-2-------------------------------------------------------------|
E|---------------------------------------------------------------------|

[light riff, ending riff]

e|---------------------------------------------------------------------|
B|---------------------------------------------------------------------|
G|-6-6-8-8-9-9-11-11---------------------------------------------------|
D|---------------------------------------------------------------------|
A|---------------------------------------------------------------------|
E|---------------------------------------------------------------------|


--====--
ss4_aaron@yahoo.com

Comments