Nine Days - Wanna Be Chords & Tabs

 

Wanna Be Chords & Tabs

Nine Days Chords & Tabs

Version: 2 Type: Tab 0 ratings
1 star 2 stars 3 stars 4 stars 5 stars
comments

Wanna Be Tab

wanna be, nine days.
 Tabbed by brian steeders peeders, brianmatthewsbnd@aol.com.
  
wanna be,


email me for corrections

e------11----------10-----------8--------------
b---11----11----11----11----11----11---8---11--
g-8-----------8----------8---------------------
d----------------------------------------------
a----------------------------------------------
e----------------------------------------------
[ Tab from: http://www.guitartabs.cc/tabs/n/nine_days/wanna_be_tab_ver_2.html ]
you brought me here...  ( not really a guitar part )

e------------------------------------------------
b-3/4-3/4------------------------------------------
g-3---3---3---------------------------------------
d-1---1---3---6-----------------------------------
a---------1---6-----------------------------------
e---------1---4-----------------------------------


yet another one...not sure botu this one though 
:: Ultimate Guitar Archive :: 
http://www.ultimate-guitar.com 

 
Comments