Nine Days - Revolve Chords & Tabs

 

Revolve Chords & Tabs

Nine Days Chords & Tabs

Version: 1 Type: Tab 0 ratings
1 star 2 stars 3 stars 4 stars 5 stars
comments

Revolve Tab

   
Artist: Nine Days 
Song: Revolve 
Album: The Madding Crowd 
Tabbed by: Kay-G    (kay-g@paradis.dk) 


This is one of my favorite songs off of this album, and I've never seen any tab 
for it 
anywhere, so here we go! 

INTRO (guitar 1-distortion): 
e|-----------------|-----------------| 
B|-----------------|-----------------| 
G|-7-7-7-7-7-7-7-7-|-6-6-6-6-6-6-6-6-| 
D|-0-0-0-0-0-0-0-0-|-0-0-0-0-0-0-0-0-|  play this whole 
A|-0-0-0-0-0-0-0-0-|-0-0-0-0-0-0-0-0-|   thing twice. 
E|-----------------|-----------------|     
   ^play 3 times      ^play one time 

NEXT PART OF INTRO (still guitar 1): 
e|-----------------| 
B|-----------------| 
G|-7-6-4-2-0-------| 
D|-----------4-2-0-| play 3 times 
A|-----------------| 
E|-----------------| 

INTRO (guitar 2-distortion): 
e|-------------------------------------------------------------| 
B|-------------------------------------------------------------| 
G|-7--7-7-7-7-7-7----------------------------------------------| 
D|-7--7-7-7-7-7-7-9--9-9-9-9-9-9-4--4-4-4-4-4-4-7--7-7-7-7-7-7-| play twice 
A|-5--5-5-5-5-5-5-9--9-9-9-9-9-9-4--4-4-4-4-4-4-7--7-7-7-7-7-7-| 
E|----------------7--7-7-7-7-7-7-2--2-2-2-2-2-2-5--5-5-5-5-5-5-| 

NEXT PART OF INTRO (still guitar 2): 
e|----------------------------------------------------------------- 
B|----------------------------------------------------------------- 
G|----------------------------------------------------------------- 
D|-5-5-5-5-5-5-5-5-7-7-7-7-7-7-7-7-9-9-9-9-9-9-9-9-7-7-7-7-7-7-7-7- 
A|-5-5-5-5-5-5-5-5-7-7-7-7-7-7-7-7-9-9-9-9-9-9-9-9-7-7-7-7-7-7-7-7- 
E|-3-3-3-3-3-3-3-3-5-5-5-5-5-5-5-5-7-7-7-7-7-7-7-7-5-5-5-5-5-5-5-5- 
   
  ---------------------------------| 
  ---------------------------------| 
  ---------------------------------| 
  -5-5-5-5-5-5-5-5-7-7-7-7-7-7-7-7-| 
  -5-5-5-5-5-5-5-5-7-7-7-7-7-7-7-7-| 
  -3-3-3-3-3-3-3-3-5-5-5-5-5-5-5-5-| 

VERSE (guitar 1 only): 
e|-----------------| 
B|-----------------| 
G|-7-x-7-7-7-x-x-x-| 
D|-0-x-0-0-0-x-x-x-| play.. 16 times? 
A|-----------------|  i lost count. 
E|-----------------| 
"i wanna crawl inside..." 
[ Tab from: http://www.guitartabs.cc/tabs/n/nine_days/revolve_tab.html ]
PRE-CHORUS: 
e|-----------------------------| 
B|-----------------------------| 
G|-----------------------------| 
D|-5------7------4------5------| 
A|-5-(x8)-7-(x8)-4-(x8)-5-(x8)-| 
E|-3------5------2------3------| 

alright.. i can't tell what the guitars actually do in the background, 
it's so soft and faint.. so just play this for now, it's what the bass 
plays, it'll sound fine.  if anyone else can tell what the guitars do 
in the background, please let me know! 

CHORUS (guitar 1): 
e|---------|-----------------| 
B|---------|-----------------| 
G|-2-------|-7-6-4-2-0-------| 
D|-2-(x32)-|-----------4-2-0-| 
A|-0-------|-----------------| 
E|---------|-----------------| 
             ^play 3 times 

CHORUS (guitar 2): 
-same as intro!- 

POST-CHORUS AFTER FIRST CHORUS ONLY (guitar 1): 
e|-3---10--7--5--3--5-3-2-|-10-9-7-5-3-2-0----| 
B|------------------------|----------------3--| 
G|------------------------|-------------------| 
D|------------------------|-------------------| 
A|------------------------|-------------------| 
E|------------------------|-------------------| 
   ^play this twice 
i'm pretty sure these should be harmonics but i can't 
figure 'em out.. hehe. i suck! 

POST-CHORUS AFTER FIRST CHORUS ONLY (guitar 2): 
e|---| 
B|---| 
G|-7-| 
D|-0-| just figure out the rhythm and play 
A|---|  under guitar 1, it shouldn't stick out too much. 
E|---| 

play verse again 

then pre-chorus 

then chorus 

BRIDGE (guitar 1): 
e|-----------------------------------------| 
B|-----10---8-7-----7-8---------10---8-7---| 
G|-7-9----------9-------7---7-9----------9-| 
D|-----------------------------------------| 
A|-----------------------------------------| 
E|-----------------------------------------| 

BRIDGE (guitar 2): 
e|--------------| 
B|--------------| 
G|--------------| 
D|--------------| play 3 times 
A|-5h7--9--7--5-| 
E|--------------| 

it sounds like there is a note being strummed on the  
open D string.. so i'm confused now. maybe my "guitar 1" is 
actually jeremy on the keyboard.. who knows? 

play pre-chorus 
--but stop the sound right when he sings "cause you are the only one" 
   and then come back in again. 

chorus 


And I'm sure you can figure out the rest from there.  What a GREAT SONG!!!!  
Nine Days 
is so amazing... I'll try and tab some more of their stuff.  Most of their songs 
actually 
have really complicated guitar parts... so I'll see what I can do. 

Comments