Nine Days - Bitter Chords & Tabs

 

Bitter Chords & Tabs

Nine Days Chords & Tabs

Version: 4 Type: Tab 0 ratings
1 star 2 stars 3 stars 4 stars 5 stars
comments

Bitter Tab

------------------------------------------------------------
                    Bitter - NINEDAYS
------------------------------------------------------------

By: Stella03

Intro and verses:
e|-----------------|-----------------|-----------------|
B|-----------------|-----------------|-----------------|
G|-7---7---7---7---|-6---6---6---6---|-7---7---7---7---|
D|---0---0---0---0-|---0---0---0---0-|---9---9---9---9-|
A|-----------------|-----------------|-----------------|
E|-----------------|-----------------|-----------------|
[ Tab from: http://www.guitartabs.cc/tabs/n/nine_days/bitter_tab_ver_4.html ]
e|-----------------|-----------------|-----------------|
B|-----------------|-----------------|-----------------|
G|-2---2---2---2---|---0---0---0---0-|-2---2---2---2---|
D|---4---4---4---4-|-7---7---7---7---|---4---4---4---4-|
A|-----------------|-----------------|-----------------|
E|-----------------|-----------------|-----------------|

e|-----------------|-----------------|
B|-----------------|-----------------|
G|-6---6---6---6---|-6---6---6---6---|
D|-----------------|-----------------|
A|---7---7---7---7-|---0---0---0---0-|
E|-----------------|-----------------|

Listen to the CD for the changes, it's not too hard to figure out.
I haven't quite figured out the chorus just yet, but I will tab it
and the solo ASAP. email me for corrections (rasaka03vettes@aol.com)
============================================================
Comments